  0
SECTION
  2
HEADER
  9
$LIMMIN
 10
0
 20
0
  9
$LIMMAX
 10
52.5
 20
74.25
  9
$EXTMIN
 10
0
 20
34.8131950537364
  9
$EXTMAX
 10
0
 20
16.2802080790202
  0
ENDSEC
  0
SECTION
  2
TABLES
  0
TABLE
  2
LTYPE
 70
9
  0
LTYPE
  2
CONTINUOUS
 70
64
  3
Solid line
 72
65
 73
0
 40
0
  0
LTYPE
  2
DASHED
 70
64
  3
__ __ __ __ __ __ __ __ __
 72
65
 73
2
 40
0.75
 49
0.5
 49
-0.25
  0
LTYPE
  2
DOT
 70
64
  3
...........................
 72
65
 73
2
 40
0.25
 49
0
 49
-0.25
  0
LTYPE
  2
DASHDOT
 70
64
  3
__ . __ . __ . __ . __ . __ . 
 72
65
 73
4
 40
1
 49
0.5
 49
-0.25
 49
0
 49
-0.25
  0
ENDTAB
  0
TABLE
  2
LAYER
 70
10
  0
LAYER
  2
1
 70
0
 62
7
  6
CONTINUOUS
  0
LAYER
  2
CONNECTIONS
 70
0
 62
-7
  6
CONTINUOUS
  0
ENDTAB
  0
ENDSEC
  0
SECTION
  2
BLOCKS
  0
BLOCK
  8
0
  2
TRICON
 70
0
 10
0
 20
0
  0
POLYLINE
  8
1
 70
1
 66
1
 40
0.5
 41
0.5
  0
VERTEX
  8
1
 10
-0.25
 20
0
 42
1
  0
VERTEX
  8
1
 10
0.25
 20
0
 42
1
  0
SEQEND
  8
1
  0
ENDBLK
  8
0
  0
BLOCK
  8
0
  2
TRICONSMALL
 70
0
 10
0
 20
0
  0
POLYLINE
  8
1
 70
1
 66
1
 40
0.25
 41
0.25
  0
VERTEX
  8
1
 10
-0.125
 20
0
 42
1
  0
VERTEX
  8
1
 10
0.125
 20
0
 42
1
  0
SEQEND
  8
1
  0
ENDBLK
  8
0
  0
BLOCK
  8
0
  2
TRICONCIRCLE
 70
0
 10
0
 20
0
  0
CIRCLE
  8
1
 10
0
 20
0
 40
0.5
  0
ENDBLK
  8
0
  0
BLOCK
  8
0
  2
LCBP0
 70
0
 10
0
 20
0
  0
LINE
  8
1
 10
0
 20
-0.46875
 11
0
 21
0.46875
  0
ENDBLK
  8
0
  0
BLOCK
  8
0
  2
LCBP1
 70
0
 10
0
 20
0
  0
LINE
  8
1
 10
0
 20
-0.625
 11
0
 21
0.625
  0
ENDBLK
  8
0
  0
BLOCK
  8
0
  2
LCBP2
 70
0
 10
0
 20
0
  0
LINE
  8
1
 10
0
 20
-0.9375
 11
0
 21
0.9375
  0
ENDBLK
  8
0
  0
BLOCK
  8
0
  2
LCA1
 70
0
 10
0
 20
0
  0
SOLID
  8
1
 62
7 
 10
0
 20
0
 11
-1.4
 21
-0.275
 12
-1.4
 22
0.275
 13
-1.4
 23
0.275
  0
ENDBLK
  8
0
  0
BLOCK
  8
0
  2
LCA2
 70
0
 10
0
 20
0
  0
SOLID
  8
1
 62
7 
 10
0
 20
0
 11
-1.65
 21
-0.525
 12
-1.65
 22
0.525
 13
-1.65
 23
0.525
  0
ENDBLK
  8
0
  0
BLOCK
  8
0
  2
LCA3
 70
0
 10
0
 20
0
  0
SOLID
  8
1
 62
7 
 10
0
 20
0
 11
-2.15
 21
-1.15
 12
-2.15
 22
1.15
 13
-2.15
 23
1.15
  0
ENDBLK
  8
0
  0
BLOCK
  8
0
  2
LCA1R
 70
0
 10
0
 20
0
  0
SOLID
  8
1
 62
7 
 10
0
 20
0
 11
1.4
 21
-0.275
 12
1.4
 22
0.275
 13
1.4
 23
0.275
  0
ENDBLK
  8
0
  0
BLOCK
  8
0
  2
LCA2R
 70
0
 10
0
 20
0
  0
SOLID
  8
1
 62
7 
 10
0
 20
0
 11
1.65
 21
-0.525
 12
1.65
 22
0.525
 13
1.65
 23
0.525
  0
ENDBLK
  8
0
  0
BLOCK
  8
0
  2
LCA3R
 70
0
 10
0
 20
0
  0
SOLID
  8
1
 62
7 
 10
0
 20
0
 11
2.15
 21
-1.15
 12
2.15
 22
1.15
 13
2.15
 23
1.15
  0
ENDBLK
  8
0
  0
BLOCK
  8
0
  2
B4120_00995400
 70
0
 10
0
 20
0
  0
POLYLINE
  8
1
 66
1
  0
VERTEX
  8
1
 10
-8.40659755071004
 20
-1.1401039759318
  0
VERTEX
  8
1
 10
0.593402449289959
 20
-1.1401039759318
  0
VERTEX
  8
1
 10
0.593402449289959
 20
-6.1401039759318
  0
VERTEX
  8
1
 10
-8.40659755071004
 20
-6.1401039759318
  0
VERTEX
  8
1
 10
-8.40659755071004
 20
-1.1401039759318
  0
SEQEND
  8
1
  0
POLYLINE
  8
1
 66
1
  0
VERTEX
  8
1
 10
-8.40659755071004
 20
4.8598960240682
  0
VERTEX
  8
1
 10
0.593402449289959
 20
4.8598960240682
  0
VERTEX
  8
1
 10
0.593402449289959
 20
-0.140103975931805
  0
VERTEX
  8
1
 10
-8.40659755071004
 20
-0.140103975931805
  0
VERTEX
  8
1
 10
-8.40659755071004
 20
4.8598960240682
  0
SEQEND
  8
1
  0
POLYLINE
  8
1
 66
1
  0
VERTEX
  8
1
 10
-17.40659755071
 20
6.8598960240682
  0
VERTEX
  8
1
 10
1.59340244928996
 20
6.8598960240682
  0
VERTEX
  8
1
 10
1.59340244928996
 20
-8.1401039759318
  0
VERTEX
  8
1
 10
-17.40659755071
 20
-8.1401039759318
  0
VERTEX
  8
1
 10
-17.40659755071
 20
6.8598960240682
  0
SEQEND
  8
1
  0
TEXT
  8
1
 40
1.125
 41
0.75
  1
NO/NC
  7
STANDARD
 72
1
 73
2
 10
-4.07653214136761
 20
-4.71839157740275
 11
-4.07653214136761
 21
-4.71839157740275
  0
TEXT
  8
1
 40
1.125
 41
0.75
  1
PNP/NPN
  7
STANDARD
 10
-7.90658395842197
 20
-3.2341791788737
  0
TEXT
  8
1
 40
1.125
 41
0.75
  1
NO/NC
  7
STANDARD
 72
1
 73
2
 10
-4.07653214136761
 20
1.18160842259725
 11
-4.07653214136761
 21
1.18160842259725
  0
TEXT
  8
1
 40
1.125
 41
0.75
  1
PNP/NPN
  7
STANDARD
 72
2
 10
-0.0464667320251575
 20
2.7658208211263
 11
-0.0464667320251575
 21
2.7658208211263
  0
TEXT
  8
1
 40
1.68
 41
0.75
  1
-
  7
STANDARD
 72
1
 73
2
 10
16.57135070165
 20
-6.28957144419352
 11
16.57135070165
 21
-6.28957144419352
  0
TEXT
  8
1
 40
1.44
 41
0.75
  1
+
  7
STANDARD
 72
1
 73
2
 10
15.91340244929
 20
5.2598960240682
 11
15.91340244929
 21
5.2598960240682
  0
TEXT
  8
1
 40
1.68
 41
0.75
  1
3
  7
STANDARD
 72
1
 73
2
 10
4.93348459243775
 20
-4.98957144419352
 11
4.93348459243775
 21
-4.98957144419352
  0
TEXT
  8
1
 40
1.68
 41
0.75
  1
2
  7
STANDARD
 72
1
 73
2
 10
5.01348459243774
 20
-0.989571444193521
 11
5.01348459243774
 21
-0.989571444193521
  0
TEXT
  8
1
 40
1.68
 41
0.75
  1
4
  7
STANDARD
 72
1
 73
2
 10
4.93348459243775
 20
3.01042855580648
 11
4.93348459243775
 21
3.01042855580648
  0
TEXT
  8
1
 40
1.44
 41
0.75
  1
1
  7
STANDARD
 10
3.04731203079224
 20
6.09968807220459
  0
TEXT
  8
1
 40
1.68
 41
0.75
  1
BU
  7
STANDARD
 72
1
 73
2
 10
10.0041997845968
 20
-5.2401039759318
 11
10.0041997845968
 21
-5.2401039759318
  0
TEXT
  8
1
 40
1.47
 41
0.75
  1
WH
  7
STANDARD
 72
1
 73
2
 10
9.80150751272837
 20
-1.0401039759318
 11
9.80150751272837
 21
-1.0401039759318
  0
TEXT
  8
1
 40
1.68
 41
0.75
  1
BK
  7
STANDARD
 72
1
 73
2
 10
9.91123680750529
 20
2.7598960240682
 11
9.91123680750529
 21
2.7598960240682
  0
TEXT
  8
1
 40
1.44
 41
0.75
  1
BN
  7
STANDARD
 73
2
 10
8.10506424585978
 20
6.7598960240682
 11
8.10506424585978
 21
6.7598960240682
  0
LINE
  8
1
 10
0.593402449289959
 20
-2.6401039759318
 11
1.59340244928996
 21
-2.6401039759318
  0
LINE
  8
1
 10
0.593402449289959
 20
1.3598960240682
 11
1.59340244928996
 21
1.3598960240682
  0
LINE
  8
1
  6
DOT
 10
-9.90659755071004
 20
-3.6401039759318
 11
-8.40659755071004
 21
-3.6401039759318
  0
LINE
  8
1
  6
DOT
 10
-9.90659755071004
 20
2.3598960240682
 11
-8.40659755071004
 21
2.3598960240682
  0
LINE
  8
1
  6
DOT
 10
-9.90659755071004
 20
2.3598960240682
 11
-9.90659755071004
 21
-3.6401039759318
  0
LINE
  8
1
 10
8.59340244928996
 20
-2.6401039759318
 11
12.59340244929
 21
-2.6401039759318
  0
LINE
  8
1
 10
8.59340244928996
 20
1.3598960240682
 11
12.59340244929
 21
1.3598960240682
  0
LINE
  8
1
 10
8.59340244928996
 20
5.3598960240682
 11
12.59340244929
 21
5.3598960240682
  0
LINE
  8
1
 10
8.59340244928996
 20
-6.6401039759318
 11
12.59340244929
 21
-6.6401039759318
  0
LINE
  8
1
 10
-17.40659755071
 20
1.8598960240682
 11
-12.50659755071
 21
6.7598960240682
  0
POLYLINE
  8
1
 66
1
  0
VERTEX
  8
1
 10
-16.40659755071
 20
-3.1401039759318
  0
VERTEX
  8
1
 10
-16.40659755071
 20
1.8598960240682
  0
VERTEX
  8
1
 10
-14.40659755071
 20
1.8598960240682
  0
VERTEX
  8
1
 10
-14.40659755071
 20
0.859896024068195
  0
VERTEX
  8
1
 10
-15.40659755071
 20
0.859896024068195
  0
VERTEX
  8
1
 10
-15.40659755071
 20
-2.1401039759318
  0
VERTEX
  8
1
 10
-14.40659755071
 20
-2.1401039759318
  0
VERTEX
  8
1
 10
-14.40659755071
 20
-3.1401039759318
  0
VERTEX
  8
1
 10
-16.40659755071
 20
-3.1401039759318
  0
SEQEND
  8
1
  0
SOLID
  8
1
 10
-14.40659755071
 20
-2.1401039759318
 11
-14.40659755071
 21
-3.1401039759318
 12
-16.40659755071
 22
-3.1401039759318
 13
-16.40659755071
 23
-3.1401039759318
  0
SOLID
  8
1
 10
-16.40659755071
 20
1.8598960240682
 11
-14.40659755071
 21
1.8598960240682
 12
-14.40659755071
 22
0.859896024068195
 13
-14.40659755071
 23
0.859896024068195
  0
SOLID
  8
1
 10
-15.40659755071
 20
-2.1401039759318
 11
-14.40659755071
 21
-2.1401039759318
 12
-16.40659755071
 22
-3.1401039759318
 13
-16.40659755071
 23
-3.1401039759318
  0
SOLID
  8
1
 10
-16.40659755071
 20
1.8598960240682
 11
-14.40659755071
 21
0.859896024068195
 12
-15.40659755071
 22
0.859896024068195
 13
-15.40659755071
 23
0.859896024068195
  0
SOLID
  8
1
 10
-15.40659755071
 20
0.859896024068195
 11
-15.40659755071
 21
-2.1401039759318
 12
-16.40659755071
 22
-3.1401039759318
 13
-16.40659755071
 23
-3.1401039759318
  0
SOLID
  8
1
 10
-16.40659755071
 20
-3.1401039759318
 11
-16.40659755071
 21
1.8598960240682
 12
-15.40659755071
 22
0.859896024068195
 13
-15.40659755071
 23
0.859896024068195
  0
LINE
  8
1
 10
1.59340244928996
 20
5.3598960240682
 11
5.59340244928996
 21
5.3598960240682
  0
LINE
  8
1
 10
1.59340244928996
 20
-6.6401039759318
 11
5.59340244928996
 21
-6.6401039759318
  0
LINE
  8
1
 10
1.59340244928996
 20
-2.6401039759318
 11
5.59340244928996
 21
-2.6401039759318
  0
LINE
  8
1
 10
1.59340244928996
 20
1.3598960240682
 11
5.59340244928996
 21
1.3598960240682
  0
LINE
  8
1
 10
7.84340244928996
 20
5.3598960240682
 11
8.59340244928996
 21
5.3598960240682
  0
ARC
  8
1
 10
6.84340244928996
 20
5.3598960240682
 40
1
 50
270
 51
90
  0
SOLID
  8
1
 10
5.59340244928996
 20
5.6098960240682
 11
7.09340244928996
 21
5.6098960240682
 12
5.59340244928996
 22
5.1098960240682
 13
7.09340244928996
 23
5.1098960240682
  0
SOLID
  8
1
 10
7.09340244928996
 20
5.1098960240682
 11
5.59340244928996
 21
5.1098960240682
 12
5.59340244928996
 22
5.1098960240682
 13
5.59340244928996
 23
5.6098960240682
  0
LINE
  8
1
 10
7.84340244928996
 20
1.3598960240682
 11
8.59340244928996
 21
1.3598960240682
  0
ARC
  8
1
 10
6.84340244928996
 20
1.3598960240682
 40
1
 50
270
 51
90
  0
SOLID
  8
1
 10
5.59340244928996
 20
1.6098960240682
 11
7.09340244928996
 21
1.6098960240682
 12
5.59340244928996
 22
1.1098960240682
 13
7.09340244928996
 23
1.1098960240682
  0
SOLID
  8
1
 10
7.09340244928996
 20
1.1098960240682
 11
5.59340244928996
 21
1.1098960240682
 12
5.59340244928996
 22
1.1098960240682
 13
5.59340244928996
 23
1.6098960240682
  0
LINE
  8
1
 10
7.84340244928996
 20
-2.6401039759318
 11
8.59340244928996
 21
-2.6401039759318
  0
ARC
  8
1
 10
6.84340244928996
 20
-2.6401039759318
 40
1
 50
270
 51
90
  0
SOLID
  8
1
 10
5.59340244928996
 20
-2.3901039759318
 11
7.09340244928996
 21
-2.3901039759318
 12
5.59340244928996
 22
-2.8901039759318
 13
7.09340244928996
 23
-2.8901039759318
  0
SOLID
  8
1
 10
7.09340244928996
 20
-2.8901039759318
 11
5.59340244928996
 21
-2.8901039759318
 12
5.59340244928996
 22
-2.8901039759318
 13
5.59340244928996
 23
-2.3901039759318
  0
LINE
  8
1
 10
7.84340244928996
 20
-6.6401039759318
 11
8.59340244928996
 21
-6.6401039759318
  0
ARC
  8
1
 10
6.84340244928996
 20
-6.6401039759318
 40
1
 50
270
 51
90
  0
SOLID
  8
1
 10
5.59340244928996
 20
-6.3901039759318
 11
7.09340244928996
 21
-6.3901039759318
 12
5.59340244928996
 22
-6.8901039759318
 13
7.09340244928996
 23
-6.8901039759318
  0
SOLID
  8
1
 10
7.09340244928996
 20
-6.8901039759318
 11
5.59340244928996
 21
-6.8901039759318
 12
5.59340244928996
 22
-6.8901039759318
 13
5.59340244928996
 23
-6.3901039759318
  0
LINE
  8
1
  6
DOT
 10
-11.40659755071
 20
-0.640103975931803
 11
-9.90659755071004
 21
-0.640103975931803
  0
LINE
  8
1
 10
-13.60659755071
 20
0.159896024068199
 11
-13.60659755071
 21
-1.44010397593181
  0
LINE
  8
1
 10
-12.20659755071
 20
0.159896024068199
 11
-12.20659755071
 21
-1.44010397593181
  0
POLYLINE
  8
1
 66
1
  0
VERTEX
  8
1
 10
-12.90659755071
 20
0.859896024068195
  0
VERTEX
  8
1
 10
-14.40659755071
 20
-0.640103975931803
  0
VERTEX
  8
1
 10
-12.90659755071
 20
-2.1401039759318
  0
VERTEX
  8
1
 10
-11.40659755071
 20
-0.640103975931803
  0
VERTEX
  8
1
 10
-12.90659755071
 20
0.859896024068195
  0
SEQEND
  8
1
  0
ENDBLK
  8
0
  0
ENDSEC
  0
SECTION
  2
ENTITIES
  0
INSERT
  8
1
  2
B4120_00995400
 10
17.40659755071
 20
8.14010397593181
  0
ENDSEC
  0
EOF
