  0
SECTION
  2
HEADER
  9
$LIMMIN
 10
0
 20
0
  9
$LIMMAX
 10
52.5
 20
74.25
  9
$EXTMIN
 10
0
 20
100
  9
$EXTMAX
 10
0
 20
100.656325385438
  0
ENDSEC
  0
SECTION
  2
TABLES
  0
TABLE
  2
LTYPE
 70
9
  0
LTYPE
  2
CONTINUOUS
 70
64
  3
Solid line
 72
65
 73
0
 40
0
  0
LTYPE
  2
DASHED
 70
64
  3
__ __ __ __ __ __ __ __ __
 72
65
 73
2
 40
0.75
 49
0.5
 49
-0.25
  0
LTYPE
  2
DOT
 70
64
  3
...........................
 72
65
 73
2
 40
0.25
 49
0
 49
-0.25
  0
LTYPE
  2
DASHDOT
 70
64
  3
__ . __ . __ . __ . __ . __ . 
 72
65
 73
4
 40
1
 49
0.5
 49
-0.25
 49
0
 49
-0.25
  0
ENDTAB
  0
TABLE
  2
LAYER
 70
10
  0
LAYER
  2
1
 70
0
 62
7
  6
CONTINUOUS
  0
LAYER
  2
CONNECTIONS
 70
0
 62
-7
  6
CONTINUOUS
  0
ENDTAB
  0
ENDSEC
  0
SECTION
  2
BLOCKS
  0
BLOCK
  8
0
  2
TRICON
 70
0
 10
0
 20
0
  0
POLYLINE
  8
1
 70
1
 66
1
 40
0.5
 41
0.5
  0
VERTEX
  8
1
 10
-0.25
 20
0
 42
1
  0
VERTEX
  8
1
 10
0.25
 20
0
 42
1
  0
SEQEND
  8
1
  0
ENDBLK
  8
0
  0
BLOCK
  8
0
  2
TRICONSMALL
 70
0
 10
0
 20
0
  0
POLYLINE
  8
1
 70
1
 66
1
 40
0.25
 41
0.25
  0
VERTEX
  8
1
 10
-0.125
 20
0
 42
1
  0
VERTEX
  8
1
 10
0.125
 20
0
 42
1
  0
SEQEND
  8
1
  0
ENDBLK
  8
0
  0
BLOCK
  8
0
  2
TRICONCIRCLE
 70
0
 10
0
 20
0
  0
CIRCLE
  8
1
 10
0
 20
0
 40
0.5
  0
ENDBLK
  8
0
  0
BLOCK
  8
0
  2
LCBP0
 70
0
 10
0
 20
0
  0
LINE
  8
1
 10
0
 20
-0.46875
 11
0
 21
0.46875
  0
ENDBLK
  8
0
  0
BLOCK
  8
0
  2
LCBP1
 70
0
 10
0
 20
0
  0
LINE
  8
1
 10
0
 20
-0.625
 11
0
 21
0.625
  0
ENDBLK
  8
0
  0
BLOCK
  8
0
  2
LCBP2
 70
0
 10
0
 20
0
  0
LINE
  8
1
 10
0
 20
-0.9375
 11
0
 21
0.9375
  0
ENDBLK
  8
0
  0
BLOCK
  8
0
  2
LCA1
 70
0
 10
0
 20
0
  0
SOLID
  8
1
 62
7 
 10
0
 20
0
 11
-1.4
 21
-0.275
 12
-1.4
 22
0.275
 13
-1.4
 23
0.275
  0
ENDBLK
  8
0
  0
BLOCK
  8
0
  2
LCA2
 70
0
 10
0
 20
0
  0
SOLID
  8
1
 62
7 
 10
0
 20
0
 11
-1.65
 21
-0.525
 12
-1.65
 22
0.525
 13
-1.65
 23
0.525
  0
ENDBLK
  8
0
  0
BLOCK
  8
0
  2
LCA3
 70
0
 10
0
 20
0
  0
SOLID
  8
1
 62
7 
 10
0
 20
0
 11
-2.15
 21
-1.15
 12
-2.15
 22
1.15
 13
-2.15
 23
1.15
  0
ENDBLK
  8
0
  0
BLOCK
  8
0
  2
LCA1R
 70
0
 10
0
 20
0
  0
SOLID
  8
1
 62
7 
 10
0
 20
0
 11
1.4
 21
-0.275
 12
1.4
 22
0.275
 13
1.4
 23
0.275
  0
ENDBLK
  8
0
  0
BLOCK
  8
0
  2
LCA2R
 70
0
 10
0
 20
0
  0
SOLID
  8
1
 62
7 
 10
0
 20
0
 11
1.65
 21
-0.525
 12
1.65
 22
0.525
 13
1.65
 23
0.525
  0
ENDBLK
  8
0
  0
BLOCK
  8
0
  2
LCA3R
 70
0
 10
0
 20
0
  0
SOLID
  8
1
 62
7 
 10
0
 20
0
 11
2.15
 21
-1.15
 12
2.15
 22
1.15
 13
2.15
 23
1.15
  0
ENDBLK
  8
0
  0
BLOCK
  8
0
  2
B2495_00995398
 70
0
 10
0
 20
0
  0
POLYLINE
  8
1
 66
1
  0
VERTEX
  8
1
 10
-50
 20
49.6718368304439
  0
VERTEX
  8
1
 10
50
 20
49.6718368304439
  0
VERTEX
  8
1
 10
50
 20
-50.3281631695561
  0
VERTEX
  8
1
 10
-50
 20
-50.3281631695561
  0
VERTEX
  8
1
 10
-50
 20
49.6718368304439
  0
SEQEND
  8
1
  0
TEXT
  8
1
 40
10.8
 41
0.75
  1
3
  7
STANDARD
 72
1
 73
2
 10
-0.804320271809956
 20
39.8448314892582
 11
-0.804320271809956
 21
39.8448314892582
  0
TEXT
  8
1
 40
10.8
 41
0.75
  1
4
  7
STANDARD
 72
2
 73
2
 10
-30.7453298521708
 20
1.82027623779255
 11
-30.7453298521708
 21
1.82027623779255
  0
TEXT
  8
1
 40
10.8
 41
0.75
  1
2
  7
STANDARD
 73
2
 10
31.1255440546618
 20
2.24351627171957
 11
31.1255440546618
 21
2.24351627171957
  0
TEXT
  8
1
 40
10.8
 41
0.75
  1
1
  7
STANDARD
 73
2
 10
24.2
 20
-27.0797237622075
 11
24.2
 21
-27.0797237622075
  0
TEXT
  8
1
 40
10.8
 41
0.75
  1
5
  7
STANDARD
 72
2
 73
2
 10
-22.1854299487399
 20
-27.9078081929652
 11
-22.1854299487399
 21
-27.9078081929652
  0
LINE
  8
1
 10
5.25412874953769
 20
-29.7420491835973
 11
5.22297018444022
 21
-28.7602753755876
  0
LINE
  8
1
 10
-4.67597835075267
 20
-29.9561777125665
 11
-4.67649624925596
 21
-28.8248069812052
  0
ARC
  8
1
 10
0.273056488511218
 20
-28.3982771509927
 40
4.96789693934968
 50
355.127135373715
 51
184.92532028129
  0
CIRCLE
  8
1
 10
13.5
 20
-16.3281631695561
 40
5
  0
CIRCLE
  8
1
 10
-14.5
 20
-16.3281631695561
 40
5
  0
CIRCLE
  8
1
 10
-20
 20
3.17183683044392
 40
5
  0
CIRCLE
  8
1
 10
20
 20
3.17183683044392
 40
5
  0
CIRCLE
  8
1
 10
0
 20
21.1718368304439
 40
5
  0
CIRCLE
  8
1
 10
0
 20
-0.328163169556082
 40
30
  0
ENDBLK
  8
0
  0
ENDSEC
  0
SECTION
  2
ENTITIES
  0
INSERT
  8
1
  2
B2495_00995398
 10
50
 20
50.3281631695561
  0
ENDSEC
  0
EOF
