  0
SECTION
  2
HEADER
  9
$LIMMIN
 10
0
 20
0
  9
$LIMMAX
 10
52.5
 20
74.25
  9
$EXTMIN
 10
0
 20
100
  9
$EXTMAX
 10
0
 20
105.54342141932
  0
ENDSEC
  0
SECTION
  2
TABLES
  0
TABLE
  2
LTYPE
 70
9
  0
LTYPE
  2
CONTINUOUS
 70
64
  3
Solid line
 72
65
 73
0
 40
0
  0
LTYPE
  2
DASHED
 70
64
  3
__ __ __ __ __ __ __ __ __
 72
65
 73
2
 40
0.75
 49
0.5
 49
-0.25
  0
LTYPE
  2
DOT
 70
64
  3
...........................
 72
65
 73
2
 40
0.25
 49
0
 49
-0.25
  0
LTYPE
  2
DASHDOT
 70
64
  3
__ . __ . __ . __ . __ . __ . 
 72
65
 73
4
 40
1
 49
0.5
 49
-0.25
 49
0
 49
-0.25
  0
ENDTAB
  0
TABLE
  2
LAYER
 70
10
  0
LAYER
  2
1
 70
0
 62
7
  6
CONTINUOUS
  0
LAYER
  2
CONNECTIONS
 70
0
 62
-7
  6
CONTINUOUS
  0
ENDTAB
  0
ENDSEC
  0
SECTION
  2
BLOCKS
  0
BLOCK
  8
0
  2
TRICON
 70
0
 10
0
 20
0
  0
POLYLINE
  8
1
 70
1
 66
1
 40
0.5
 41
0.5
  0
VERTEX
  8
1
 10
-0.25
 20
0
 42
1
  0
VERTEX
  8
1
 10
0.25
 20
0
 42
1
  0
SEQEND
  8
1
  0
ENDBLK
  8
0
  0
BLOCK
  8
0
  2
TRICONSMALL
 70
0
 10
0
 20
0
  0
POLYLINE
  8
1
 70
1
 66
1
 40
0.25
 41
0.25
  0
VERTEX
  8
1
 10
-0.125
 20
0
 42
1
  0
VERTEX
  8
1
 10
0.125
 20
0
 42
1
  0
SEQEND
  8
1
  0
ENDBLK
  8
0
  0
BLOCK
  8
0
  2
TRICONCIRCLE
 70
0
 10
0
 20
0
  0
CIRCLE
  8
1
 10
0
 20
0
 40
0.5
  0
ENDBLK
  8
0
  0
BLOCK
  8
0
  2
LCBP0
 70
0
 10
0
 20
0
  0
LINE
  8
1
 10
0
 20
-0.46875
 11
0
 21
0.46875
  0
ENDBLK
  8
0
  0
BLOCK
  8
0
  2
LCBP1
 70
0
 10
0
 20
0
  0
LINE
  8
1
 10
0
 20
-0.625
 11
0
 21
0.625
  0
ENDBLK
  8
0
  0
BLOCK
  8
0
  2
LCBP2
 70
0
 10
0
 20
0
  0
LINE
  8
1
 10
0
 20
-0.9375
 11
0
 21
0.9375
  0
ENDBLK
  8
0
  0
BLOCK
  8
0
  2
LCA1
 70
0
 10
0
 20
0
  0
SOLID
  8
1
 62
7 
 10
0
 20
0
 11
-1.4
 21
-0.275
 12
-1.4
 22
0.275
 13
-1.4
 23
0.275
  0
ENDBLK
  8
0
  0
BLOCK
  8
0
  2
LCA2
 70
0
 10
0
 20
0
  0
SOLID
  8
1
 62
7 
 10
0
 20
0
 11
-1.65
 21
-0.525
 12
-1.65
 22
0.525
 13
-1.65
 23
0.525
  0
ENDBLK
  8
0
  0
BLOCK
  8
0
  2
LCA3
 70
0
 10
0
 20
0
  0
SOLID
  8
1
 62
7 
 10
0
 20
0
 11
-2.15
 21
-1.15
 12
-2.15
 22
1.15
 13
-2.15
 23
1.15
  0
ENDBLK
  8
0
  0
BLOCK
  8
0
  2
LCA1R
 70
0
 10
0
 20
0
  0
SOLID
  8
1
 62
7 
 10
0
 20
0
 11
1.4
 21
-0.275
 12
1.4
 22
0.275
 13
1.4
 23
0.275
  0
ENDBLK
  8
0
  0
BLOCK
  8
0
  2
LCA2R
 70
0
 10
0
 20
0
  0
SOLID
  8
1
 62
7 
 10
0
 20
0
 11
1.65
 21
-0.525
 12
1.65
 22
0.525
 13
1.65
 23
0.525
  0
ENDBLK
  8
0
  0
BLOCK
  8
0
  2
LCA3R
 70
0
 10
0
 20
0
  0
SOLID
  8
1
 62
7 
 10
0
 20
0
 11
2.15
 21
-1.15
 12
2.15
 22
1.15
 13
2.15
 23
1.15
  0
ENDBLK
  8
0
  0
BLOCK
  8
0
  2
B2503_00995386
 70
0
 10
0
 20
0
  0
POLYLINE
  8
1
 66
1
  0
VERTEX
  8
1
 10
-50
 20
50.6399405756879
  0
VERTEX
  8
1
 10
50
 20
50.6399405756879
  0
VERTEX
  8
1
 10
50
 20
-49.3600594243122
  0
VERTEX
  8
1
 10
-50
 20
-49.3600594243122
  0
VERTEX
  8
1
 10
-50
 20
50.6399405756879
  0
SEQEND
  8
1
  0
TEXT
  8
1
 40
10.8
 41
0.75
  1
2
  7
STANDARD
 72
1
 73
2
 10
-0.0410095803609165
 20
42.2883799830365
 11
-0.0410095803609165
 21
42.2883799830365
  0
TEXT
  8
1
 40
10.8
 41
0.75
  1
4
  7
STANDARD
 72
1
 73
2
 10
-0.0787762171481372
 20
-42.2883799830365
 11
-0.0787762171481372
 21
-42.2883799830365
  0
TEXT
  8
1
 40
10.8
 41
0.75
  1
1
  7
STANDARD
 73
2
 10
32.7232105948799
 20
-0.139704447721293
 11
32.7232105948799
 21
-0.139704447721293
  0
TEXT
  8
1
 40
10.8
 41
0.75
  1
3
  7
STANDARD
 72
2
 73
2
 10
-32.4086405436198
 20
0.312935234502181
 11
-32.4086405436198
 21
0.312935234502181
  0
ARC
  8
1
 10
19.8
 20
20.0399405756878
 40
4.96789693934968
 50
128.101625118227
 51
317.899810025802
  0
LINE
  8
1
 10
17.5619410758876
 20
24.7208691429916
 11
16.7345184804023
 21
23.9492657160419
  0
LINE
  8
1
 10
24.3134710616968
 20
17.4809214324955
 11
23.4860484662115
 21
16.7093180055459
  0
LINE
  8
1
 10
-5.08864648392322
 20
-18.3477994196857
 11
4.91135351607678
 21
-18.3477994196857
  0
LINE
  8
1
 10
-0.0886464839232228
 20
-23.3477994196857
 11
-0.0886464839232228
 21
-13.3477994196857
  0
LINE
  8
1
 10
-19
 20
-4.32893412070359
 11
-19
 21
5.67106587929641
  0
LINE
  8
1
 10
-24
 20
0.671065879296407
 11
-14
 21
0.671065879296407
  0
LINE
  8
1
 10
-4.9685138599738
 20
19.6399405756878
 11
5.0314861400262
 21
19.6399405756878
  0
LINE
  8
1
 10
0.0314861400261938
 20
14.6399405756878
 11
0.0314861400261938
 21
24.6399405756878
  0
LINE
  8
1
 10
19.0915524520009
 20
-4.25156994941047
 11
19.0915524520009
 21
5.74843005058953
  0
LINE
  8
1
 10
14.0915524520009
 20
0.748430050589529
 11
24.091552452001
 21
0.748430050589529
  0
CIRCLE
  8
1
 10
0
 20
0.63994057568785
 40
30
  0
ENDBLK
  8
0
  0
ENDSEC
  0
SECTION
  2
ENTITIES
  0
INSERT
  8
1
  2
B2503_00995386
 10
50
 20
52.77171070966
  0
ENDSEC
  0
EOF
