  0
SECTION
  2
HEADER
  9
$LIMMIN
 10
0
 20
0
  9
$LIMMAX
 10
52.5
 20
74.25
  9
$EXTMIN
 10
0
 20
52.7346900304158
  9
$EXTMAX
 10
0
 20
23.9999995231628
  0
ENDSEC
  0
SECTION
  2
TABLES
  0
TABLE
  2
LTYPE
 70
9
  0
LTYPE
  2
CONTINUOUS
 70
64
  3
Solid line
 72
65
 73
0
 40
0
  0
LTYPE
  2
DASHED
 70
64
  3
__ __ __ __ __ __ __ __ __
 72
65
 73
2
 40
0.75
 49
0.5
 49
-0.25
  0
LTYPE
  2
DOT
 70
64
  3
...........................
 72
65
 73
2
 40
0.25
 49
0
 49
-0.25
  0
LTYPE
  2
DASHDOT
 70
64
  3
__ . __ . __ . __ . __ . __ . 
 72
65
 73
4
 40
1
 49
0.5
 49
-0.25
 49
0
 49
-0.25
  0
ENDTAB
  0
TABLE
  2
LAYER
 70
10
  0
LAYER
  2
1
 70
0
 62
7
  6
CONTINUOUS
  0
LAYER
  2
CONNECTIONS
 70
0
 62
-7
  6
CONTINUOUS
  0
ENDTAB
  0
ENDSEC
  0
SECTION
  2
BLOCKS
  0
BLOCK
  8
0
  2
TRICON
 70
0
 10
0
 20
0
  0
POLYLINE
  8
1
 70
1
 66
1
 40
0.5
 41
0.5
  0
VERTEX
  8
1
 10
-0.25
 20
0
 42
1
  0
VERTEX
  8
1
 10
0.25
 20
0
 42
1
  0
SEQEND
  8
1
  0
ENDBLK
  8
0
  0
BLOCK
  8
0
  2
TRICONSMALL
 70
0
 10
0
 20
0
  0
POLYLINE
  8
1
 70
1
 66
1
 40
0.25
 41
0.25
  0
VERTEX
  8
1
 10
-0.125
 20
0
 42
1
  0
VERTEX
  8
1
 10
0.125
 20
0
 42
1
  0
SEQEND
  8
1
  0
ENDBLK
  8
0
  0
BLOCK
  8
0
  2
TRICONCIRCLE
 70
0
 10
0
 20
0
  0
CIRCLE
  8
1
 10
0
 20
0
 40
0.5
  0
ENDBLK
  8
0
  0
BLOCK
  8
0
  2
LCBP0
 70
0
 10
0
 20
0
  0
LINE
  8
1
 10
0
 20
-0.46875
 11
0
 21
0.46875
  0
ENDBLK
  8
0
  0
BLOCK
  8
0
  2
LCBP1
 70
0
 10
0
 20
0
  0
LINE
  8
1
 10
0
 20
-0.625
 11
0
 21
0.625
  0
ENDBLK
  8
0
  0
BLOCK
  8
0
  2
LCBP2
 70
0
 10
0
 20
0
  0
LINE
  8
1
 10
0
 20
-0.9375
 11
0
 21
0.9375
  0
ENDBLK
  8
0
  0
BLOCK
  8
0
  2
LCA1
 70
0
 10
0
 20
0
  0
SOLID
  8
1
 62
7 
 10
0
 20
0
 11
-1.4
 21
-0.275
 12
-1.4
 22
0.275
 13
-1.4
 23
0.275
  0
ENDBLK
  8
0
  0
BLOCK
  8
0
  2
LCA2
 70
0
 10
0
 20
0
  0
SOLID
  8
1
 62
7 
 10
0
 20
0
 11
-1.65
 21
-0.525
 12
-1.65
 22
0.525
 13
-1.65
 23
0.525
  0
ENDBLK
  8
0
  0
BLOCK
  8
0
  2
LCA3
 70
0
 10
0
 20
0
  0
SOLID
  8
1
 62
7 
 10
0
 20
0
 11
-2.15
 21
-1.15
 12
-2.15
 22
1.15
 13
-2.15
 23
1.15
  0
ENDBLK
  8
0
  0
BLOCK
  8
0
  2
LCA1R
 70
0
 10
0
 20
0
  0
SOLID
  8
1
 62
7 
 10
0
 20
0
 11
1.4
 21
-0.275
 12
1.4
 22
0.275
 13
1.4
 23
0.275
  0
ENDBLK
  8
0
  0
BLOCK
  8
0
  2
LCA2R
 70
0
 10
0
 20
0
  0
SOLID
  8
1
 62
7 
 10
0
 20
0
 11
1.65
 21
-0.525
 12
1.65
 22
0.525
 13
1.65
 23
0.525
  0
ENDBLK
  8
0
  0
BLOCK
  8
0
  2
LCA3R
 70
0
 10
0
 20
0
  0
SOLID
  8
1
 62
7 
 10
0
 20
0
 11
2.15
 21
-1.15
 12
2.15
 22
1.15
 13
2.15
 23
1.15
  0
ENDBLK
  8
0
  0
BLOCK
  8
0
  2
B2177_00995380
 70
0
 10
0
 20
0
  0
LINE
  8
1
 10
-13.8030097484589
 20
10
 11
-22.8030097484589
 21
1
  0
POLYLINE
  8
1
 66
1
  0
VERTEX
  8
1
 10
-22.8030097484589
 20
10
  0
VERTEX
  8
1
 10
-4.80300974845886
 20
10
  0
VERTEX
  8
1
 10
-4.80300974845886
 20
-8
  0
VERTEX
  8
1
 10
-22.8030097484589
 20
-8
  0
VERTEX
  8
1
 10
-22.8030097484589
 20
10
  0
SEQEND
  8
1
  0
TEXT
  8
1
 40
1.8
 41
0.75
  1
NPN
  7
STANDARD
 72
1
 73
3
 10
-13.8030097484589
 20
-8.9994794845581
 11
-13.8030097484589
 21
-8.9994794845581
  0
TEXT
  8
1
 40
1.8
 41
0.75
  1
0V
  7
STANDARD
 10
19.0000575224558
 20
-8.1
  0
TEXT
  8
1
 40
1.8
 41
0.75
  1
+24V
  7
STANDARD
 10
18.6800814469655
 20
8.17473974227905
  0
TEXT
  8
1
 40
1.8
 41
0.75
  1
5
  7
STANDARD
 10
-4.80300974845886
 20
-2.55052051544189
  0
TEXT
  8
1
 40
1.8
 41
0.75
  1
GY
  7
STANDARD
 10
0.196990251541138
 20
-2.55052051544189
  0
TEXT
  8
1
 40
1.8
 41
0.75
  1
BU
  7
STANDARD
 10
0.196990251541138
 20
-6.55052051544189
  0
TEXT
  8
1
 40
1.8
 41
0.75
  1
3
  7
STANDARD
 10
-4.80300974845886
 20
-6.55052051544189
  0
TEXT
  8
1
 40
1.8
 41
0.75
  1
WH
  7
STANDARD
 10
0.196990251541138
 20
1.44947948455811
  0
TEXT
  8
1
 40
1.8
 41
0.75
  1
BK
  7
STANDARD
 10
0.196990251541138
 20
5.44947948455811
  0
TEXT
  8
1
 40
1.8
 41
0.75
  1
BN
  7
STANDARD
 10
0.196990251541138
 20
9.44947948455811
  0
TEXT
  8
1
 40
1.8
 41
0.75
  1
2
  7
STANDARD
 10
-4.80300974845886
 20
1.44947948455811
  0
TEXT
  8
1
 40
1.8
 41
0.75
  1
4
  7
STANDARD
 10
-4.80300974845886
 20
5.44947948455811
  0
TEXT
  8
1
 40
1.8
 41
0.75
  1
1
  7
STANDARD
 10
-4.80300974845886
 20
9.44947948455811
  0
TEXT
  8
1
 40
1.8
 41
0.75
  1
P
  7
STANDARD
 72
2
 10
-23.8858640193939
 20
7.17474037806193
 11
-23.8858640193939
 21
7.17474037806193
  0
LINE
  8
1
 10
-22.8030097484589
 20
6.5
 11
-22.8030097484589
 21
5.5
  0
LINE
  8
1
 10
-22.8030097484589
 20
6.5
 11
-21.8030097484589
 21
6
  0
LINE
  8
1
 10
-21.8030097484589
 20
6
 11
-22.8030097484589
 21
5.5
  0
LINE
  8
1
 10
-22.8030097484589
 20
6.5
 11
-22.8030097484589
 21
5.5
  0
LINE
  8
1
 10
-25.8030097484589
 20
6
 11
-22.8030097484589
 21
6
  0
LINE
  8
1
 10
0.196990251541138
 20
9
 11
1.19699025154114
 21
9
  0
LINE
  8
1
 10
0.196990251541138
 20
1
 11
1.19699025154114
 21
1
  0
ARC
  8
1
 10
-0.803009748458862
 20
1
 40
1
 50
270
 51
90
  0
LINE
  8
1
 10
0.196990251541138
 20
-3
 11
1.19699025154114
 21
-3
  0
ARC
  8
1
 10
-0.803009748458862
 20
-3
 40
1
 50
270
 51
90
  0
LINE
  8
1
 10
0.196990251541138
 20
-7
 11
1.19699025154114
 21
-7
  0
ARC
  8
1
 10
-0.803009748458862
 20
-7
 40
1
 50
270
 51
90
  0
ARC
  8
1
 10
-0.803009748458862
 20
9
 40
1
 50
270
 51
90
  0
LINE
  8
1
 10
0.196990251541138
 20
5
 11
1.19699025154114
 21
5
  0
ARC
  8
1
 10
-0.803009748458862
 20
5
 40
1
 50
270
 51
90
  0
LINE
  8
1
 10
-4.80300974845886
 20
-7
 11
-1.80300974845886
 21
-7
  0
LINE
  8
1
 10
-4.80300974845886
 20
-3
 11
-1.80300974845886
 21
-3
  0
LINE
  8
1
 10
-4.80300974845886
 20
1
 11
-1.80300974845886
 21
1
  0
LINE
  8
1
 10
-4.80300974845886
 20
5
 11
-1.80300974845886
 21
5
  0
LINE
  8
1
 10
-4.80300974845886
 20
9
 11
-1.80300974845886
 21
9
  0
SOLID
  8
1
 10
-1.80300974845886
 20
-6.75
 11
-0.303009748458862
 21
-6.75
 12
-1.80300974845886
 22
-7.25
 13
-0.303009748458862
 23
-7.25
  0
SOLID
  8
1
 10
-0.303009748458862
 20
-7.25
 11
-1.80300974845886
 21
-7.25
 12
-1.80300974845886
 22
-7.25
 13
-1.80300974845886
 23
-6.75
  0
SOLID
  8
1
 10
-1.80300974845886
 20
-2.75
 11
-0.303009748458862
 21
-2.75
 12
-1.80300974845886
 22
-3.25
 13
-0.303009748458862
 23
-3.25
  0
SOLID
  8
1
 10
-0.303009748458862
 20
-3.25
 11
-1.80300974845886
 21
-3.25
 12
-1.80300974845886
 22
-3.25
 13
-1.80300974845886
 23
-2.75
  0
SOLID
  8
1
 10
-1.80300974845886
 20
1.25
 11
-0.303009748458862
 21
1.25
 12
-1.80300974845886
 22
0.75
 13
-0.303009748458862
 23
0.75
  0
SOLID
  8
1
 10
-0.303009748458862
 20
0.75
 11
-1.80300974845886
 21
0.75
 12
-1.80300974845886
 22
0.75
 13
-1.80300974845886
 23
1.25
  0
SOLID
  8
1
 10
-1.80300974845886
 20
5.25
 11
-0.303009748458862
 21
5.25
 12
-1.80300974845886
 22
4.75
 13
-0.303009748458862
 23
4.75
  0
SOLID
  8
1
 10
-0.303009748458862
 20
4.75
 11
-1.80300974845886
 21
4.75
 12
-1.80300974845886
 22
4.75
 13
-1.80300974845886
 23
5.25
  0
SOLID
  8
1
 10
-1.80300974845886
 20
9.25
 11
-0.303009748458862
 21
9.25
 12
-1.80300974845886
 22
8.75
 13
-0.303009748458862
 23
8.75
  0
SOLID
  8
1
 10
-0.303009748458862
 20
8.75
 11
-1.80300974845886
 21
8.75
 12
-1.80300974845886
 22
8.75
 13
-1.80300974845886
 23
9.25
  0
LINE
  8
1
 10
1.19699025154114
 20
-7
 11
9.99699025154113
 21
-7
  0
LINE
  8
1
 10
10.3969902515411
 20
-7
 11
16.1969902515411
 21
-7
  0
LINE
  8
1
 10
10.1969902515411
 20
-6.8
 11
10.1969902515411
 21
-3
  0
CIRCLE
  8
1
 10
10.1969902515411
 20
-7
 40
0.2
  0
TEXT
  8
1
 40
1.8
 41
0.75
  1
R
  7
STANDARD
 72
1
 10
6.69699025154114
 20
-2.1
 11
6.69699025154114
 21
-2.1
  0
TEXT
  8
1
 40
1.125
 41
0.75
  1
L
  7
STANDARD
 72
1
 10
8.41045626004536
 20
-2.09407536188761
 11
8.41045626004536
 21
-2.09407536188761
  0
POLYLINE
  8
1
 66
1
  0
VERTEX
  8
1
 10
5.19699025154114
 20
-2.5
  0
VERTEX
  8
1
 10
9.19699025154114
 20
-2.5
  0
VERTEX
  8
1
 10
9.19699025154114
 20
-3.5
  0
VERTEX
  8
1
 10
5.19699025154114
 20
-3.5
  0
VERTEX
  8
1
 10
5.19699025154114
 20
-2.5
  0
SEQEND
  8
1
  0
LINE
  8
1
 10
5.19699025154114
 20
-3
 11
1.19699025154114
 21
-3
  0
LINE
  8
1
 10
9.19699025154114
 20
-3
 11
10.1969902515411
 21
-3
  0
LINE
  8
1
 10
12.3969902515411
 20
9
 11
16.1969902515411
 21
9
  0
LINE
  8
1
 10
12.1969902515411
 20
8.8
 11
12.1969902515411
 21
1
  0
LINE
  8
1
 10
10.1969902515411
 20
8.8
 11
10.1969902515411
 21
5
  0
LINE
  8
1
 10
5.19699025154114
 20
5
 11
1.19699025154114
 21
5
  0
LINE
  8
1
 10
1.19699025154114
 20
1
 11
7.19699025154114
 21
1
  0
TEXT
  8
1
 40
1.8
 41
0.75
  1
R
  7
STANDARD
 72
1
 10
8.69699025154112
 20
1.9
 11
8.69699025154112
 21
1.9
  0
TEXT
  8
1
 40
1.125
 41
0.75
  1
L
  7
STANDARD
 72
1
 10
10.4104562600454
 20
1.90592463811239
 11
10.4104562600454
 21
1.90592463811239
  0
LINE
  8
1
 10
11.1969902515411
 20
1
 11
12.1969902515411
 21
1
  0
POLYLINE
  8
1
 66
1
  0
VERTEX
  8
1
 10
7.19699025154114
 20
1.5
  0
VERTEX
  8
1
 10
11.1969902515411
 20
1.5
  0
VERTEX
  8
1
 10
11.1969902515411
 20
0.5
  0
VERTEX
  8
1
 10
7.19699025154114
 20
0.5
  0
VERTEX
  8
1
 10
7.19699025154114
 20
1.5
  0
SEQEND
  8
1
  0
LINE
  8
1
 10
9.19699025154114
 20
5
 11
10.1969902515411
 21
5
  0
TEXT
  8
1
 40
1.8
 41
0.75
  1
R
  7
STANDARD
 72
1
 10
6.69699025154114
 20
5.9
 11
6.69699025154114
 21
5.9
  0
TEXT
  8
1
 40
1.125
 41
0.75
  1
L
  7
STANDARD
 72
1
 10
8.41045626004536
 20
5.90592463811239
 11
8.41045626004536
 21
5.90592463811239
  0
POLYLINE
  8
1
 66
1
  0
VERTEX
  8
1
 10
5.19699025154114
 20
5.5
  0
VERTEX
  8
1
 10
9.19699025154114
 20
5.5
  0
VERTEX
  8
1
 10
9.19699025154114
 20
4.5
  0
VERTEX
  8
1
 10
5.19699025154114
 20
4.5
  0
VERTEX
  8
1
 10
5.19699025154114
 20
5.5
  0
SEQEND
  8
1
  0
CIRCLE
  8
1
 10
12.1969902515411
 20
9
 40
0.2
  0
CIRCLE
  8
1
 10
10.1969902515411
 20
9
 40
0.2
  0
LINE
  8
1
 10
1.19699025154114
 20
9
 11
9.99699025154113
 21
9
  0
LINE
  8
1
 10
10.3970216912044
 20
9
 11
11.9969902515411
 21
9
  0
LINE
  8
1
  6
DOT
 10
-12.8030097484589
 20
5
 11
-9.20299780837166
 21
5
  0
LINE
  8
1
 10
-14.3030097484589
 20
4.9
 11
-13.8030097484589
 21
4.5
  0
LINE
  8
1
 10
-14.3030097484589
 20
5.1
 11
-13.8030097484589
 21
5.5
  0
SOLID
  8
1
 10
-12.3030097484589
 20
7
 11
-12.9124612206729
 21
6.49644374394097
 12
-12.3030097484589
 22
7
 13
-12.4884371725947
 23
6.23148411182437
  0
LINE
  8
1
 10
-14.8030097484589
 20
3
 11
-12.3030097484589
 21
7
  0
LINE
  8
1
 10
-14.3030097484589
 20
4
 11
-14.3030097484589
 21
3
  0
LINE
  8
1
 10
-14.3030097484589
 20
6
 11
-14.3030097484589
 21
7
  0
POLYLINE
  8
1
 66
1
  0
VERTEX
  8
1
 10
-15.8030097484589
 20
6
  0
VERTEX
  8
1
 10
-12.8030097484589
 20
6
  0
VERTEX
  8
1
 10
-12.8030097484589
 20
4
  0
VERTEX
  8
1
 10
-15.8030097484589
 20
4
  0
VERTEX
  8
1
 10
-15.8030097484589
 20
6
  0
SEQEND
  8
1
  0
LINE
  8
1
 10
-14.3030097484589
 20
5.4
 11
-14.3030097484589
 21
4.6
  0
LINE
  8
1
 10
-15.3030097484589
 20
5
 11
-14.3030097484589
 21
5
  0
LINE
  8
1
  6
DOT
 10
-16.8030097484589
 20
1
 11
-13.2030026503283
 21
1
  0
LINE
  8
1
 10
-18.3030097484589
 20
0.9
 11
-17.8030097484589
 21
0.5
  0
LINE
  8
1
 10
-18.3030097484589
 20
1.1
 11
-17.8030097484589
 21
1.5
  0
SOLID
  8
1
 10
-16.3030097484589
 20
3
 11
-16.9124612206729
 21
2.49644374394097
 12
-16.3030097484589
 22
3
 13
-16.4884371725947
 23
2.23148411182437
  0
LINE
  8
1
 10
-18.8030097484589
 20
-1
 11
-16.3030097484589
 21
3
  0
LINE
  8
1
 10
-18.3030097484589
 20
0
 11
-18.3030097484589
 21
-1
  0
LINE
  8
1
 10
-18.3030097484589
 20
2
 11
-18.3030097484589
 21
3
  0
POLYLINE
  8
1
 66
1
  0
VERTEX
  8
1
 10
-19.8030097484589
 20
2
  0
VERTEX
  8
1
 10
-16.8030097484589
 20
2
  0
VERTEX
  8
1
 10
-16.8030097484589
 20
0
  0
VERTEX
  8
1
 10
-19.8030097484589
 20
0
  0
VERTEX
  8
1
 10
-19.8030097484589
 20
2
  0
SEQEND
  8
1
  0
LINE
  8
1
 10
-18.3030097484589
 20
1.4
 11
-18.3030097484589
 21
0.600000000000001
  0
LINE
  8
1
 10
-19.3030097484589
 20
1
 11
-18.3030097484589
 21
1
  0
POLYLINE
  8
1
 66
1
  0
VERTEX
  8
1
 10
-12.8030097484589
 20
-1
  0
VERTEX
  8
1
 10
-12.8030097484589
 20
-7
  0
VERTEX
  8
1
 10
-4.80300974845886
 20
-7
  0
SEQEND
  8
1
  0
POLYLINE
  8
1
 66
1
  0
VERTEX
  8
1
 10
-12.8030097484589
 20
3
  0
VERTEX
  8
1
 10
-10.8030097484589
 20
3
  0
VERTEX
  8
1
 10
-10.8030097484589
 20
1
  0
VERTEX
  8
1
 10
-4.80300974845886
 20
1
  0
SEQEND
  8
1
  0
LINE
  8
1
 10
-13.8030097484589
 20
2.5
 11
-12.8030097484589
 21
0
  0
LINE
  8
1
 10
-13.8030097484589
 20
0
 11
-11.8030097484589
 21
0
  0
LINE
  8
1
 10
-12.8030097484589
 20
0
 11
-12.8030097484589
 21
-1
  0
LINE
  8
1
 10
-12.8030097484589
 20
2
 11
-12.8030097484589
 21
3
  0
POLYLINE
  8
1
 66
1
  0
VERTEX
  8
1
 10
-8.80300974845886
 20
3
  0
VERTEX
  8
1
 10
-8.80300974845886
 20
-7
  0
VERTEX
  8
1
 10
-4.80300974845886
 20
-7
  0
SEQEND
  8
1
  0
POLYLINE
  8
1
 66
1
  0
VERTEX
  8
1
 10
-8.80300974845886
 20
7
  0
VERTEX
  8
1
 10
-6.80300974845886
 20
7
  0
VERTEX
  8
1
 10
-6.80300974845886
 20
5
  0
VERTEX
  8
1
 10
-4.80300974845886
 20
5
  0
SEQEND
  8
1
  0
LINE
  8
1
 10
-9.80300974845886
 20
6.5
 11
-8.80300974845886
 21
4
  0
LINE
  8
1
 10
-9.80300974845886
 20
4
 11
-7.80300974845886
 21
4
  0
LINE
  8
1
 10
-8.80300974845886
 20
4
 11
-8.80300974845886
 21
3
  0
LINE
  8
1
 10
-8.80300974845886
 20
6
 11
-8.80300974845886
 21
7
  0
POLYLINE
  8
1
 66
1
  0
VERTEX
  8
1
 10
-15.8030097484589
 20
-2
  0
VERTEX
  8
1
 10
-15.8030097484589
 20
-4
  0
VERTEX
  8
1
 10
-13.8030097484589
 20
-3
  0
VERTEX
  8
1
 10
-15.8030097484589
 20
-2
  0
SEQEND
  8
1
  0
LINE
  8
1
 10
-13.8030097484589
 20
-3
 11
-4.80300974845886
 21
-3
  0
TEXT
  8
1
 40
1.8
 41
0.75
  1
U
  7
STANDARD
 72
2
 73
2
 10
-19.8030097484589
 20
-3
 11
-19.8030097484589
 21
-3
  0
LINE
  8
1
 10
-16.8030097484589
 20
-2
 11
-19.8030097484589
 21
-4
  0
LINE
  8
1
 10
-19.8030097484589
 20
-4
 11
-16.8030097484589
 21
-4
  0
LINE
  8
1
 10
-19.8030097484589
 20
-1.5
 11
-19.8030097484589
 21
-4
  0
ENDBLK
  8
0
  0
ENDSEC
  0
SECTION
  2
ENTITIES
  0
INSERT
  8
1
  2
B2177_00995380
 10
26.3673449357351
 20
11.9999997615814
  0
ENDSEC
  0
EOF
