  0
SECTION
  2
HEADER
  9
$LIMMIN
 10
0
 20
0
  9
$LIMMAX
 10
52.5
 20
74.25
  9
$EXTMIN
 10
0
 20
110.134690030416
  9
$EXTMAX
 10
0
 20
24.0000001589457
  0
ENDSEC
  0
SECTION
  2
TABLES
  0
TABLE
  2
LTYPE
 70
9
  0
LTYPE
  2
CONTINUOUS
 70
64
  3
Solid line
 72
65
 73
0
 40
0
  0
LTYPE
  2
DASHED
 70
64
  3
__ __ __ __ __ __ __ __ __
 72
65
 73
2
 40
0.75
 49
0.5
 49
-0.25
  0
LTYPE
  2
DOT
 70
64
  3
...........................
 72
65
 73
2
 40
0.25
 49
0
 49
-0.25
  0
LTYPE
  2
DASHDOT
 70
64
  3
__ . __ . __ . __ . __ . __ . 
 72
65
 73
4
 40
1
 49
0.5
 49
-0.25
 49
0
 49
-0.25
  0
ENDTAB
  0
TABLE
  2
LAYER
 70
10
  0
LAYER
  2
1
 70
0
 62
7
  6
CONTINUOUS
  0
LAYER
  2
CONNECTIONS
 70
0
 62
-7
  6
CONTINUOUS
  0
ENDTAB
  0
ENDSEC
  0
SECTION
  2
BLOCKS
  0
BLOCK
  8
0
  2
TRICON
 70
0
 10
0
 20
0
  0
POLYLINE
  8
1
 70
1
 66
1
 40
0.5
 41
0.5
  0
VERTEX
  8
1
 10
-0.25
 20
0
 42
1
  0
VERTEX
  8
1
 10
0.25
 20
0
 42
1
  0
SEQEND
  8
1
  0
ENDBLK
  8
0
  0
BLOCK
  8
0
  2
TRICONSMALL
 70
0
 10
0
 20
0
  0
POLYLINE
  8
1
 70
1
 66
1
 40
0.25
 41
0.25
  0
VERTEX
  8
1
 10
-0.125
 20
0
 42
1
  0
VERTEX
  8
1
 10
0.125
 20
0
 42
1
  0
SEQEND
  8
1
  0
ENDBLK
  8
0
  0
BLOCK
  8
0
  2
TRICONCIRCLE
 70
0
 10
0
 20
0
  0
CIRCLE
  8
1
 10
0
 20
0
 40
0.5
  0
ENDBLK
  8
0
  0
BLOCK
  8
0
  2
LCBP0
 70
0
 10
0
 20
0
  0
LINE
  8
1
 10
0
 20
-0.46875
 11
0
 21
0.46875
  0
ENDBLK
  8
0
  0
BLOCK
  8
0
  2
LCBP1
 70
0
 10
0
 20
0
  0
LINE
  8
1
 10
0
 20
-0.625
 11
0
 21
0.625
  0
ENDBLK
  8
0
  0
BLOCK
  8
0
  2
LCBP2
 70
0
 10
0
 20
0
  0
LINE
  8
1
 10
0
 20
-0.9375
 11
0
 21
0.9375
  0
ENDBLK
  8
0
  0
BLOCK
  8
0
  2
LCA1
 70
0
 10
0
 20
0
  0
SOLID
  8
1
 62
7 
 10
0
 20
0
 11
-1.4
 21
-0.275
 12
-1.4
 22
0.275
 13
-1.4
 23
0.275
  0
ENDBLK
  8
0
  0
BLOCK
  8
0
  2
LCA2
 70
0
 10
0
 20
0
  0
SOLID
  8
1
 62
7 
 10
0
 20
0
 11
-1.65
 21
-0.525
 12
-1.65
 22
0.525
 13
-1.65
 23
0.525
  0
ENDBLK
  8
0
  0
BLOCK
  8
0
  2
LCA3
 70
0
 10
0
 20
0
  0
SOLID
  8
1
 62
7 
 10
0
 20
0
 11
-2.15
 21
-1.15
 12
-2.15
 22
1.15
 13
-2.15
 23
1.15
  0
ENDBLK
  8
0
  0
BLOCK
  8
0
  2
LCA1R
 70
0
 10
0
 20
0
  0
SOLID
  8
1
 62
7 
 10
0
 20
0
 11
1.4
 21
-0.275
 12
1.4
 22
0.275
 13
1.4
 23
0.275
  0
ENDBLK
  8
0
  0
BLOCK
  8
0
  2
LCA2R
 70
0
 10
0
 20
0
  0
SOLID
  8
1
 62
7 
 10
0
 20
0
 11
1.65
 21
-0.525
 12
1.65
 22
0.525
 13
1.65
 23
0.525
  0
ENDBLK
  8
0
  0
BLOCK
  8
0
  2
LCA3R
 70
0
 10
0
 20
0
  0
SOLID
  8
1
 62
7 
 10
0
 20
0
 11
2.15
 21
-1.15
 12
2.15
 22
1.15
 13
2.15
 23
1.15
  0
ENDBLK
  8
0
  0
BLOCK
  8
0
  2
B2135_00995373
 70
0
 10
0
 20
0
  0
POLYLINE
  8
1
 66
1
  0
VERTEX
  8
1
 10
1.49699025154114
 20
11.9999996821086
  0
VERTEX
  8
1
 10
21.4969902515411
 20
11.9999996821086
  0
VERTEX
  8
1
 10
21.4969902515411
 20
-8.00000031789144
  0
VERTEX
  8
1
 10
1.49699025154114
 20
-8.00000031789144
  0
VERTEX
  8
1
 10
1.49699025154114
 20
11.9999996821086
  0
SEQEND
  8
1
  0
LINE
  8
1
 10
-42.5030097484589
 20
9.99999968210856
 11
-51.5030097484589
 21
0.99999968210856
  0
POLYLINE
  8
1
 66
1
  0
VERTEX
  8
1
 10
-51.5030097484589
 20
9.99999968210856
  0
VERTEX
  8
1
 10
-33.5030097484589
 20
9.99999968210856
  0
VERTEX
  8
1
 10
-33.5030097484589
 20
-8.00000031789144
  0
VERTEX
  8
1
 10
-51.5030097484589
 20
-8.00000031789144
  0
VERTEX
  8
1
 10
-51.5030097484589
 20
9.99999968210856
  0
SEQEND
  8
1
  0
TEXT
  8
1
 40
1.8
 41
0.75
  1
NPN
  7
STANDARD
 72
1
 73
3
 10
10.4969902515411
 20
-8.99947980244954
 11
10.4969902515411
 21
-8.99947980244954
  0
TEXT
  8
1
 40
1.8
 41
0.75
  1
NPN
  7
STANDARD
 72
1
 73
3
 10
-42.5030097484589
 20
-8.99947980244954
 11
-42.5030097484589
 21
-8.99947980244954
  0
TEXT
  8
1
 40
1.8
 41
0.75
  1
+24V
  7
STANDARD
 10
47.3800814469655
 20
8.17474006017049
  0
TEXT
  8
1
 40
1.8
 41
0.75
  1
0V
  7
STANDARD
 10
47.3000575224558
 20
-8.09999968210856
  0
TEXT
  8
1
 40
1.8
 41
0.75
  1
5
  7
STANDARD
 10
21.4969902515411
 20
-2.55052019755046
  0
TEXT
  8
1
 40
1.8
 41
0.75
  1
BU
  7
STANDARD
 10
26.4969902515411
 20
-6.55052019755045
  0
TEXT
  8
1
 40
1.8
 41
0.75
  1
3
  7
STANDARD
 10
21.4969902515411
 20
-6.55052019755045
  0
TEXT
  8
1
 40
1.8
 41
0.75
  1
WH
  7
STANDARD
 10
26.4969902515411
 20
1.44947980244954
  0
TEXT
  8
1
 40
1.8
 41
0.75
  1
BK
  7
STANDARD
 10
26.4969902515411
 20
5.44947980244954
  0
TEXT
  8
1
 40
1.8
 41
0.75
  1
BN
  7
STANDARD
 10
26.4969902515411
 20
9.44947980244954
  0
TEXT
  8
1
 40
1.8
 41
0.75
  1
2
  7
STANDARD
 10
21.4969902515411
 20
1.44947980244954
  0
TEXT
  8
1
 40
1.8
 41
0.75
  1
4
  7
STANDARD
 10
21.4969902515411
 20
5.44947980244954
  0
TEXT
  8
1
 40
1.8
 41
0.75
  1
1
  7
STANDARD
 10
21.4969902515411
 20
9.44947980244954
  0
TEXT
  8
1
 40
1.8
 41
0.75
  1
0V
  7
STANDARD
 10
-12.0999424775441
 20
-8.10000031789144
  0
TEXT
  8
1
 40
1.8
 41
0.75
  1
+24V
  7
STANDARD
 10
-12.0199185530345
 20
8.17473942438762
  0
TEXT
  8
1
 40
1.8
 41
0.75
  1
5
  7
STANDARD
 10
-33.5030097484589
 20
-2.55052083333333
  0
TEXT
  8
1
 40
1.8
 41
0.75
  1
BU
  7
STANDARD
 10
-28.5030097484589
 20
-6.55052083333333
  0
TEXT
  8
1
 40
1.8
 41
0.75
  1
3
  7
STANDARD
 10
-33.5030097484589
 20
-6.55052083333333
  0
TEXT
  8
1
 40
1.8
 41
0.75
  1
+
  7
STANDARD
 10
-12.0199185530345
 20
8.17473942438762
  0
TEXT
  8
1
 40
1.8
 41
0.75
  1
WH
  7
STANDARD
 10
-28.5030097484589
 20
1.44947916666667
  0
TEXT
  8
1
 40
1.8
 41
0.75
  1
BK
  7
STANDARD
 10
-28.5030097484589
 20
5.44947916666667
  0
TEXT
  8
1
 40
1.8
 41
0.75
  1
BN
  7
STANDARD
 10
-28.5030097484589
 20
9.44947916666667
  0
TEXT
  8
1
 40
1.8
 41
0.75
  1
2
  7
STANDARD
 10
-33.5030097484589
 20
1.44947916666667
  0
TEXT
  8
1
 40
1.8
 41
0.75
  1
4
  7
STANDARD
 10
-33.5030097484589
 20
5.44947916666667
  0
TEXT
  8
1
 40
1.8
 41
0.75
  1
1
  7
STANDARD
 10
-33.5030097484589
 20
9.44947916666667
  0
TEXT
  8
1
 40
1.8
 41
0.75
  1
P
  7
STANDARD
 72
2
 10
-52.5858640193939
 20
7.17474006017049
 11
-52.5858640193939
 21
7.17474006017049
  0
LINE
  8
1
 10
-51.5030097484589
 20
6.49999968210856
 11
-51.5030097484589
 21
5.49999968210856
  0
LINE
  8
1
 10
-51.5030097484589
 20
6.49999968210856
 11
-50.5030097484589
 21
5.99999968210856
  0
LINE
  8
1
 10
-50.5030097484589
 20
5.99999968210856
 11
-51.5030097484589
 21
5.49999968210856
  0
LINE
  8
1
 10
-51.5030097484589
 20
6.49999968210856
 11
-51.5030097484589
 21
5.49999968210856
  0
LINE
  8
1
 10
-54.5030097484589
 20
5.99999968210856
 11
-51.5030097484589
 21
5.99999968210856
  0
LINE
  8
1
 10
-28.5030097484589
 20
-7.00000031789144
 11
-27.5030097484589
 21
-7.00000031789144
  0
LINE
  8
1
 10
-28.5030097484589
 20
0.99999968210856
 11
-27.5030097484589
 21
0.99999968210856
  0
LINE
  8
1
 10
-28.5030097484589
 20
4.99999968210856
 11
-27.5030097484589
 21
4.99999968210856
  0
LINE
  8
1
 10
-28.5030097484589
 20
8.99999968210856
 11
-27.5030097484589
 21
8.99999968210856
  0
ARC
  8
1
 10
-29.5030039974047
 20
-7.00000031789144
 40
1
 50
270
 51
90
  0
ARC
  8
1
 10
-29.5030039974047
 20
8.99999968210856
 40
1
 50
270
 51
90
  0
ARC
  8
1
 10
-29.5030039974047
 20
0.99999968210856
 40
1
 50
270
 51
90
  0
ARC
  8
1
 10
-29.5030039974047
 20
4.99999968210856
 40
1
 50
270
 51
90
  0
LINE
  8
1
 10
26.4969902515411
 20
-7.00000031789144
 11
27.4969902515411
 21
-7.00000031789144
  0
ARC
  8
1
 10
25.4969902515411
 20
-7.00000031789144
 40
1
 50
270
 51
90
  0
LINE
  8
1
 10
26.4969902515411
 20
8.99999968210856
 11
27.4969902515411
 21
8.99999968210856
  0
ARC
  8
1
 10
25.4969902515411
 20
8.99999968210856
 40
1
 50
270
 51
90
  0
LINE
  8
1
 10
26.4969902515411
 20
0.99999968210856
 11
27.4969902515411
 21
0.99999968210856
  0
ARC
  8
1
 10
25.4969902515411
 20
0.99999968210856
 40
1
 50
270
 51
90
  0
LINE
  8
1
 10
26.4969902515411
 20
4.99999968210856
 11
27.4969902515411
 21
4.99999968210856
  0
ARC
  8
1
 10
25.4969902515411
 20
4.99999968210856
 40
1
 50
270
 51
90
  0
LINE
  8
1
 10
-33.5030097484589
 20
-7.00000031789144
 11
-30.5030097484589
 21
-7.00000031789144
  0
LINE
  8
1
 10
-33.5030097484589
 20
-3.00000031789144
 11
-30.5030097484589
 21
-3.00000031789144
  0
LINE
  8
1
 10
-33.5030097484589
 20
0.99999968210856
 11
-30.5030097484589
 21
0.99999968210856
  0
LINE
  8
1
 10
-33.5030097484589
 20
4.99999968210856
 11
-30.5030097484589
 21
4.99999968210856
  0
LINE
  8
1
 10
-33.5030097484589
 20
8.99999968210856
 11
-30.5030097484589
 21
8.99999968210856
  0
SOLID
  8
1
 10
-30.5030097484589
 20
-6.75000031789144
 11
-29.0030097484589
 21
-6.75000031789144
 12
-30.5030097484589
 22
-7.25000031789144
 13
-29.0030097484589
 23
-7.25000031789144
  0
SOLID
  8
1
 10
-29.0030097484589
 20
-7.25000031789144
 11
-30.5030097484589
 21
-7.25000031789144
 12
-30.5030097484589
 22
-7.25000031789144
 13
-30.5030097484589
 23
-6.75000031789144
  0
SOLID
  8
1
 10
-30.5030097484589
 20
-2.75000031789144
 11
-29.0030097484589
 21
-2.75000031789144
 12
-30.5030097484589
 22
-3.25000031789144
 13
-29.0030097484589
 23
-3.25000031789144
  0
SOLID
  8
1
 10
-29.0030097484589
 20
-3.25000031789144
 11
-30.5030097484589
 21
-3.25000031789144
 12
-30.5030097484589
 22
-3.25000031789144
 13
-30.5030097484589
 23
-2.75000031789144
  0
SOLID
  8
1
 10
-30.5030097484589
 20
1.24999968210856
 11
-29.0030097484589
 21
1.24999968210856
 12
-30.5030097484589
 22
0.74999968210856
 13
-29.0030097484589
 23
0.74999968210856
  0
SOLID
  8
1
 10
-29.0030097484589
 20
0.74999968210856
 11
-30.5030097484589
 21
0.74999968210856
 12
-30.5030097484589
 22
0.74999968210856
 13
-30.5030097484589
 23
1.24999968210856
  0
SOLID
  8
1
 10
-30.5030097484589
 20
5.24999968210856
 11
-29.0030097484589
 21
5.24999968210856
 12
-30.5030097484589
 22
4.74999968210856
 13
-29.0030097484589
 23
4.74999968210856
  0
SOLID
  8
1
 10
-29.0030097484589
 20
4.74999968210856
 11
-30.5030097484589
 21
4.74999968210856
 12
-30.5030097484589
 22
4.74999968210856
 13
-30.5030097484589
 23
5.24999968210856
  0
SOLID
  8
1
 10
-30.5030097484589
 20
9.24999968210856
 11
-29.0030097484589
 21
9.24999968210856
 12
-30.5030097484589
 22
8.74999968210856
 13
-29.0030097484589
 23
8.74999968210856
  0
SOLID
  8
1
 10
-29.0030097484589
 20
8.74999968210856
 11
-30.5030097484589
 21
8.74999968210856
 12
-30.5030097484589
 22
8.74999968210856
 13
-30.5030097484589
 23
9.24999968210856
  0
LINE
  8
1
 10
21.4969902515411
 20
-7.00000031789144
 11
24.4969902515411
 21
-7.00000031789144
  0
LINE
  8
1
 10
21.4969902515411
 20
-3.00000031789144
 11
24.4969902515411
 21
-3.00000031789144
  0
LINE
  8
1
 10
21.4969902515411
 20
0.99999968210856
 11
24.4969902515411
 21
0.99999968210856
  0
LINE
  8
1
 10
21.4969902515411
 20
4.99999968210856
 11
24.4969902515411
 21
4.99999968210856
  0
LINE
  8
1
 10
21.4969902515411
 20
8.99999968210856
 11
24.4969902515411
 21
8.99999968210856
  0
SOLID
  8
1
 10
24.4969902515411
 20
-6.75000031789144
 11
25.9969902515411
 21
-6.75000031789144
 12
24.4969902515411
 22
-7.25000031789144
 13
25.9969902515411
 23
-7.25000031789144
  0
SOLID
  8
1
 10
25.9969902515411
 20
-7.25000031789144
 11
24.4969902515411
 21
-7.25000031789144
 12
24.4969902515411
 22
-7.25000031789144
 13
24.4969902515411
 23
-6.75000031789144
  0
SOLID
  8
1
 10
24.4969902515411
 20
-2.75000031789144
 11
25.9969902515411
 21
-2.75000031789144
 12
24.4969902515411
 22
-3.25000031789144
 13
25.9969902515411
 23
-3.25000031789144
  0
SOLID
  8
1
 10
25.9969902515411
 20
-3.25000031789144
 11
24.4969902515411
 21
-3.25000031789144
 12
24.4969902515411
 22
-3.25000031789144
 13
24.4969902515411
 23
-2.75000031789144
  0
SOLID
  8
1
 10
24.4969902515411
 20
1.24999968210856
 11
25.9969902515411
 21
1.24999968210856
 12
24.4969902515411
 22
0.74999968210856
 13
25.9969902515411
 23
0.74999968210856
  0
SOLID
  8
1
 10
25.9969902515411
 20
0.74999968210856
 11
24.4969902515411
 21
0.74999968210856
 12
24.4969902515411
 22
0.74999968210856
 13
24.4969902515411
 23
1.24999968210856
  0
SOLID
  8
1
 10
24.4969902515411
 20
5.24999968210856
 11
25.9969902515411
 21
5.24999968210856
 12
24.4969902515411
 22
4.74999968210856
 13
25.9969902515411
 23
4.74999968210856
  0
SOLID
  8
1
 10
25.9969902515411
 20
4.74999968210856
 11
24.4969902515411
 21
4.74999968210856
 12
24.4969902515411
 22
4.74999968210856
 13
24.4969902515411
 23
5.24999968210856
  0
SOLID
  8
1
 10
24.4969902515411
 20
9.24999968210856
 11
25.9969902515411
 21
9.24999968210856
 12
24.4969902515411
 22
8.74999968210856
 13
25.9969902515411
 23
8.74999968210856
  0
SOLID
  8
1
 10
25.9969902515411
 20
8.74999968210856
 11
24.4969902515411
 21
8.74999968210856
 12
24.4969902515411
 22
8.74999968210856
 13
24.4969902515411
 23
9.24999968210856
  0
LINE
  8
1
 10
-27.5030097484589
 20
-7.00000031789144
 11
-12.5030097484589
 21
-7.00000031789144
  0
LINE
  8
1
 10
-16.3030097484589
 20
8.99999968210856
 11
-12.5030097484589
 21
8.99999968210856
  0
LINE
  8
1
 10
-16.5030097484589
 20
8.79999968210856
 11
-16.5030097484589
 21
0.99999968210856
  0
LINE
  8
1
 10
-18.5030097484589
 20
8.79999968210856
 11
-18.5030097484589
 21
4.99999968210856
  0
LINE
  8
1
 10
-23.5030097484589
 20
4.99999968210856
 11
-27.5030097484589
 21
4.99999968210856
  0
LINE
  8
1
 10
-27.5030097484589
 20
0.99999968210856
 11
-21.5030097484589
 21
0.99999968210856
  0
TEXT
  8
1
 40
1.8
 41
0.75
  1
R
  7
STANDARD
 72
1
 10
-20.0030097484589
 20
1.89999968210856
 11
-20.0030097484589
 21
1.89999968210856
  0
TEXT
  8
1
 40
1.125
 41
0.75
  1
L
  7
STANDARD
 72
1
 10
-18.2895437399546
 20
1.90592432022095
 11
-18.2895437399546
 21
1.90592432022095
  0
LINE
  8
1
 10
-17.5030097484589
 20
0.99999968210856
 11
-16.5030097484589
 21
0.99999968210856
  0
POLYLINE
  8
1
 66
1
  0
VERTEX
  8
1
 10
-21.5030097484589
 20
1.49999968210856
  0
VERTEX
  8
1
 10
-17.5030097484589
 20
1.49999968210856
  0
VERTEX
  8
1
 10
-17.5030097484589
 20
0.499999682108559
  0
VERTEX
  8
1
 10
-21.5030097484589
 20
0.499999682108559
  0
VERTEX
  8
1
 10
-21.5030097484589
 20
1.49999968210856
  0
SEQEND
  8
1
  0
LINE
  8
1
 10
-19.5030097484589
 20
4.99999968210856
 11
-18.5030097484589
 21
4.99999968210856
  0
TEXT
  8
1
 40
1.8
 41
0.75
  1
R
  7
STANDARD
 72
1
 10
-22.0030097484589
 20
5.89999968210856
 11
-22.0030097484589
 21
5.89999968210856
  0
TEXT
  8
1
 40
1.125
 41
0.75
  1
L
  7
STANDARD
 72
1
 10
-20.2895437399546
 20
5.90592432022095
 11
-20.2895437399546
 21
5.90592432022095
  0
POLYLINE
  8
1
 66
1
  0
VERTEX
  8
1
 10
-23.5030097484589
 20
5.49999968210856
  0
VERTEX
  8
1
 10
-19.5030097484589
 20
5.49999968210856
  0
VERTEX
  8
1
 10
-19.5030097484589
 20
4.49999968210856
  0
VERTEX
  8
1
 10
-23.5030097484589
 20
4.49999968210856
  0
VERTEX
  8
1
 10
-23.5030097484589
 20
5.49999968210856
  0
SEQEND
  8
1
  0
CIRCLE
  8
1
 10
-16.5030097484589
 20
8.99999968210856
 40
0.2
  0
CIRCLE
  8
1
 10
-18.5030097484589
 20
8.99999968210856
 40
0.2
  0
LINE
  8
1
 10
-27.5030097484589
 20
8.99999968210856
 11
-18.7030097484589
 21
8.99999968210856
  0
LINE
  8
1
 10
-18.3029783087956
 20
8.99999968210856
 11
-16.7030097484589
 21
8.99999968210856
  0
LINE
  8
1
 10
27.4969902515411
 20
8.99999968210856
 11
46.4969902515411
 21
8.99999968210856
  0
LINE
  8
1
 10
46.7469902515411
 20
-7.00000031789144
 11
42.7469902515411
 21
-7.00000031789144
  0
CIRCLE
  8
1
 10
42.4969902515411
 20
-7.00000031789144
 40
0.2
  0
CIRCLE
  8
1
 10
40.4969902515411
 20
-7.00000031789144
 40
0.2
  0
LINE
  8
1
 10
40.7469902515411
 20
-7.00000031789144
 11
42.2469902515411
 21
-7.00000031789144
  0
LINE
  8
1
 10
38.4969902515411
 20
-7.00000031789144
 11
40.2469902515411
 21
-7.00000031789144
  0
LINE
  8
1
 10
42.4969902515411
 20
-6.50000031789144
 11
42.4969902515411
 21
-6.75000031789144
  0
LINE
  8
1
 10
40.4969902515411
 20
-6.50000031789144
 11
40.4969902515411
 21
-6.75000031789144
  0
LINE
  8
1
 10
42.4969902515411
 20
4.99999968210856
 11
42.4969902515411
 21
-6.50000031789144
  0
LINE
  8
1
 10
40.4969902515411
 20
0.99999968210856
 11
40.4969902515411
 21
-6.50000031789144
  0
LINE
  8
1
 10
38.4969902515411
 20
4.99999968210856
 11
42.4969902515411
 21
4.99999968210856
  0
LINE
  8
1
 10
38.4969902515411
 20
0.99999968210856
 11
40.4969902515411
 21
0.99999968210856
  0
LINE
  8
1
 10
27.9969902515411
 20
-7.00000031789144
 11
34.9969902515411
 21
-7.00000031789144
  0
LINE
  8
1
 10
27.4969902515411
 20
0.99999968210856
 11
34.9969902515411
 21
0.99999968210856
  0
LINE
  8
1
 10
27.4969902515411
 20
4.99999968210856
 11
34.9969902515411
 21
4.99999968210856
  0
LINE
  8
1
 10
7.49699025154114
 20
3.99999968210856
 11
7.49699025154114
 21
0.99999968210856
  0
LINE
  8
1
 10
7.49699025154114
 20
5.99999968210856
 11
7.49699025154114
 21
8.99999968210856
  0
LINE
  8
1
 10
14.4969902515411
 20
5.99999968210856
 11
14.4969902515411
 21
4.99999968210856
  0
LINE
  8
1
 10
14.4969902515411
 20
7.99999968210856
 11
14.4969902515411
 21
8.99999968210856
  0
LINE
  8
1
 10
21.4969902515411
 20
8.99999968210856
 11
7.49699025154114
 21
8.99999968210856
  0
LINE
  8
1
 10
7.49699025154114
 20
0.99999968210856
 11
21.4969902515411
 21
0.99999968210856
  0
LINE
  8
1
 10
14.4969902515411
 20
4.99999968210856
 11
21.4969902515411
 21
4.99999968210856
  0
LINE
  8
1
  6
DOT
 10
-41.5030097484589
 20
4.99999968210856
 11
-37.9029978083717
 21
4.99999968210856
  0
LINE
  8
1
 10
-43.0030097484589
 20
4.89999968210856
 11
-42.5030097484589
 21
4.49999968210856
  0
LINE
  8
1
 10
-43.0030097484589
 20
5.09999968210856
 11
-42.5030097484589
 21
5.49999968210856
  0
SOLID
  8
1
 10
-41.0030097484589
 20
6.99999968210856
 11
-41.6124612206729
 21
6.49644342604953
 12
-41.0030097484589
 22
6.99999968210856
 13
-41.1884371725947
 23
6.23148379393294
  0
LINE
  8
1
 10
-43.5030097484589
 20
2.99999968210856
 11
-41.0030097484589
 21
6.99999968210856
  0
LINE
  8
1
 10
-43.0030097484589
 20
3.99999968210856
 11
-43.0030097484589
 21
2.99999968210856
  0
LINE
  8
1
 10
-43.0030097484589
 20
5.99999968210856
 11
-43.0030097484589
 21
6.99999968210856
  0
POLYLINE
  8
1
 66
1
  0
VERTEX
  8
1
 10
-44.5030097484589
 20
5.99999968210856
  0
VERTEX
  8
1
 10
-41.5030097484589
 20
5.99999968210856
  0
VERTEX
  8
1
 10
-41.5030097484589
 20
3.99999968210856
  0
VERTEX
  8
1
 10
-44.5030097484589
 20
3.99999968210856
  0
VERTEX
  8
1
 10
-44.5030097484589
 20
5.99999968210856
  0
SEQEND
  8
1
  0
LINE
  8
1
 10
-43.0030097484589
 20
5.39999968210856
 11
-43.0030097484589
 21
4.59999968210856
  0
LINE
  8
1
 10
-44.0030097484589
 20
4.99999968210856
 11
-43.0030097484589
 21
4.99999968210856
  0
LINE
  8
1
  6
DOT
 10
-45.5030097484589
 20
0.99999968210856
 11
-41.9030026503283
 21
0.99999968210856
  0
LINE
  8
1
 10
-47.0030097484589
 20
0.89999968210856
 11
-46.5030097484589
 21
0.49999968210856
  0
LINE
  8
1
 10
-47.0030097484589
 20
1.09999968210856
 11
-46.5030097484589
 21
1.49999968210856
  0
SOLID
  8
1
 10
-45.0030097484589
 20
2.99999968210856
 11
-45.6124612206729
 21
2.49644342604953
 12
-45.0030097484589
 22
2.99999968210856
 13
-45.1884371725947
 23
2.23148379393293
  0
LINE
  8
1
 10
-47.5030097484589
 20
-1.00000031789144
 11
-45.0030097484589
 21
2.99999968210856
  0
LINE
  8
1
 10
-47.0030097484589
 20
-3.17891439986321E-07
 11
-47.0030097484589
 21
-1.00000031789144
  0
LINE
  8
1
 10
-47.0030097484589
 20
1.99999968210856
 11
-47.0030097484589
 21
2.99999968210856
  0
POLYLINE
  8
1
 66
1
  0
VERTEX
  8
1
 10
-48.5030097484589
 20
1.99999968210856
  0
VERTEX
  8
1
 10
-45.5030097484589
 20
1.99999968210856
  0
VERTEX
  8
1
 10
-45.5030097484589
 20
-3.17891441170559E-07
  0
VERTEX
  8
1
 10
-48.5030097484589
 20
-3.17891441170559E-07
  0
VERTEX
  8
1
 10
-48.5030097484589
 20
1.99999968210856
  0
SEQEND
  8
1
  0
LINE
  8
1
 10
-47.0030097484589
 20
1.39999968210856
 11
-47.0030097484589
 21
0.59999968210856
  0
LINE
  8
1
 10
-48.0030097484589
 20
0.99999968210856
 11
-47.0030097484589
 21
0.99999968210856
  0
LINE
  8
1
 10
6.89699025154114
 20
-4.40000031789144
 11
6.49699025154114
 21
-4.40000031789144
  0
LINE
  8
1
 10
5.99699025154114
 20
-4.40000031789144
 11
5.49699025154114
 21
-4.40000031789144
  0
LINE
  8
1
 10
3.99699025154114
 20
-4.40000031789144
 11
4.49699025154114
 21
-4.40000031789144
  0
LINE
  8
1
 10
4.99699025154114
 20
-5.45052019755044
 11
4.49699025154114
 21
-4.45052019755044
  0
LINE
  8
1
 10
5.49699025154114
 20
-4.45052019755044
 11
4.99699025154114
 21
-5.45052019755044
  0
LINE
  8
1
 10
10.9969902515411
 20
-1.45052019755045
 11
11.4969902515411
 21
-1.45052019755045
  0
LINE
  8
1
 10
11.4969902515411
 20
-1.45052019755045
 11
11.9969902515411
 21
-2.45052019755045
  0
LINE
  8
1
 10
12.4969902515411
 20
-1.45052019755045
 11
11.9969902515411
 21
-2.45052019755045
  0
LINE
  8
1
 10
12.9969902515411
 20
-1.45052019755045
 11
12.4969902515411
 21
-1.45052019755045
  0
LINE
  8
1
 10
13.9969902515411
 20
-1.45052019755045
 11
13.4969902515411
 21
-1.45052019755045
  0
TEXT
  8
1
 40
1.125
 41
0.75
  1
Sense
  7
STANDARD
 10
8.49699025154114
 20
-4.38802019755044
  0
TEXT
  8
1
 40
1.125
 41
0.75
  1
Clean
  7
STANDARD
 10
1.74699025154113
 20
-7.38802019755043
  0
TEXT
  8
1
 40
1.8
 41
0.75
  1
E
  7
STANDARD
 10
8.49699025154114
 20
-2.55052019755045
  0
TEXT
  8
1
 40
1.8
 41
0.75
  1
E
  7
STANDARD
 10
1.49699025154113
 20
-5.55052019755044
  0
LINE
  8
1
 10
14.4969902515411
 20
-1.00000031789144
 11
14.4969902515411
 21
0.99999968210856
  0
LINE
  8
1
 10
7.49699025154114
 20
-4.00000031789144
 11
7.49699025154114
 21
-3.00000031789144
  0
LINE
  8
1
 10
6.49699025154114
 20
-3.43333365122477
 11
7.49699025154114
 21
-5.93333365122477
  0
LINE
  8
1
 10
6.49699025154114
 20
-5.93333365122477
 11
8.49699025154114
 21
-5.93333365122477
  0
LINE
  8
1
 10
7.49699025154114
 20
-5.93333365122477
 11
7.49699025154114
 21
-6.93333365122477
  0
LINE
  8
1
 10
13.4969902515411
 20
-0.40000031789144
 11
14.4969902515411
 21
-2.90000031789144
  0
LINE
  8
1
 10
13.4969902515411
 20
-2.90000031789144
 11
15.4969902515411
 21
-2.90000031789144
  0
LINE
  8
1
 10
14.4969902515411
 20
-2.90000031789144
 11
14.4969902515411
 21
-3.90000031789144
  0
LINE
  8
1
 10
14.4969902515411
 20
-4.00000031789144
 11
14.4969902515411
 21
-7.00000031789144
  0
LINE
  8
1
 10
7.49699025154114
 20
0.99999968210856
 11
7.49699025154114
 21
-3.00000031789144
  0
LINE
  8
1
 10
7.49699025154114
 20
-7.00000031789144
 11
21.4969902515411
 21
-7.00000031789144
  0
POLYLINE
  8
1
 66
1
  0
VERTEX
  8
1
 10
-41.5030097484589
 20
-1.00000031789144
  0
VERTEX
  8
1
 10
-41.5030097484589
 20
-7.00000031789144
  0
VERTEX
  8
1
 10
-33.5030097484589
 20
-7.00000031789144
  0
SEQEND
  8
1
  0
POLYLINE
  8
1
 66
1
  0
VERTEX
  8
1
 10
-41.5030097484589
 20
2.99999968210856
  0
VERTEX
  8
1
 10
-39.5030097484589
 20
2.99999968210856
  0
VERTEX
  8
1
 10
-39.5030097484589
 20
0.999999682108559
  0
VERTEX
  8
1
 10
-33.5030097484589
 20
0.999999682108559
  0
SEQEND
  8
1
  0
LINE
  8
1
 10
-42.5030097484589
 20
2.49999968210856
 11
-41.5030097484589
 21
-3.17891439986321E-07
  0
LINE
  8
1
 10
-42.5030097484589
 20
-3.17891439986321E-07
 11
-40.5030097484589
 21
-3.17891439986321E-07
  0
LINE
  8
1
 10
-41.5030097484589
 20
-3.17891439986321E-07
 11
-41.5030097484589
 21
-1.00000031789144
  0
LINE
  8
1
 10
-41.5030097484589
 20
1.99999968210856
 11
-41.5030097484589
 21
2.99999968210856
  0
POLYLINE
  8
1
 66
1
  0
VERTEX
  8
1
 10
-37.5030097484589
 20
2.99999968210856
  0
VERTEX
  8
1
 10
-37.5030097484589
 20
-7.00000031789144
  0
VERTEX
  8
1
 10
-33.5030097484589
 20
-7.00000031789144
  0
SEQEND
  8
1
  0
POLYLINE
  8
1
 66
1
  0
VERTEX
  8
1
 10
-37.5030097484589
 20
6.99999968210856
  0
VERTEX
  8
1
 10
-35.5030097484589
 20
6.99999968210856
  0
VERTEX
  8
1
 10
-35.5030097484589
 20
4.99999968210856
  0
VERTEX
  8
1
 10
-33.5030097484589
 20
4.99999968210856
  0
SEQEND
  8
1
  0
LINE
  8
1
 10
-38.5030097484589
 20
6.49999968210856
 11
-37.5030097484589
 21
3.99999968210856
  0
LINE
  8
1
 10
-38.5030097484589
 20
3.99999968210856
 11
-36.5030097484589
 21
3.99999968210856
  0
LINE
  8
1
 10
-37.5030097484589
 20
3.99999968210856
 11
-37.5030097484589
 21
2.99999968210856
  0
LINE
  8
1
 10
-37.5030097484589
 20
5.99999968210856
 11
-37.5030097484589
 21
6.99999968210856
  0
LINE
  8
1
 10
18.7791801670364
 20
4.99999968210856
 11
17.4969902515411
 21
4.99999968210856
  0
POLYLINE
  8
1
 66
1
  0
VERTEX
  8
1
 10
20.4969902515411
 20
4.99999968210856
  0
VERTEX
  8
1
 10
18.7969902515411
 20
3.99999968210856
  0
VERTEX
  8
1
 10
18.7969902515411
 20
5.99999968210856
  0
VERTEX
  8
1
 10
20.4969902515411
 20
4.99999968210856
  0
SEQEND
  8
1
  0
LINE
  8
1
 10
20.4969902515411
 20
3.99999968210856
 11
20.4969902515411
 21
5.99999968210856
  0
LINE
  8
1
 10
20.4969902515411
 20
4.99999968210856
 11
21.4969902515411
 21
4.99999968210856
  0
LINE
  8
1
 10
18.7791801670364
 20
0.99999968210856
 11
17.4969902515411
 21
0.99999968210856
  0
POLYLINE
  8
1
 66
1
  0
VERTEX
  8
1
 10
20.4969902515411
 20
0.999999682108559
  0
VERTEX
  8
1
 10
18.7969902515411
 20
-3.17891441170559E-07
  0
VERTEX
  8
1
 10
18.7969902515411
 20
1.99999968210856
  0
VERTEX
  8
1
 10
20.4969902515411
 20
0.999999682108559
  0
SEQEND
  8
1
  0
LINE
  8
1
 10
20.4969902515411
 20
-3.17891439986321E-07
 11
20.4969902515411
 21
1.99999968210856
  0
LINE
  8
1
 10
20.4969902515411
 20
0.99999968210856
 11
21.4969902515411
 21
0.99999968210856
  0
LINE
  8
1
 10
37.9969902515411
 20
1.99999968210856
 11
35.4969902515411
 21
0.99999968210856
  0
LINE
  8
1
 10
37.4969902515411
 20
0.99999968210856
 11
38.4969902515411
 21
0.99999968210856
  0
LINE
  8
1
 10
35.4969902515411
 20
0.99999968210856
 11
34.4969902515411
 21
0.99999968210856
  0
LINE
  8
1
 10
37.9969902515411
 20
5.99999968210856
 11
35.4969902515411
 21
4.99999968210856
  0
LINE
  8
1
 10
37.4969902515411
 20
4.99999968210856
 11
38.4969902515411
 21
4.99999968210856
  0
LINE
  8
1
 10
35.4969902515411
 20
4.99999968210856
 11
34.4969902515411
 21
4.99999968210856
  0
LINE
  8
1
 10
37.9969902515411
 20
-6.00000031789144
 11
35.4969902515411
 21
-7.00000031789144
  0
LINE
  8
1
 10
37.4969902515411
 20
-7.00000031789144
 11
38.4969902515411
 21
-7.00000031789144
  0
LINE
  8
1
 10
35.4969902515411
 20
-7.00000031789144
 11
34.4969902515411
 21
-7.00000031789144
  0
LINE
  8
1
 10
20.2148003360459
 20
8.99999968210856
 11
21.4969902515411
 21
8.99999968210856
  0
POLYLINE
  8
1
 66
1
  0
VERTEX
  8
1
 10
18.4969902515411
 20
8.99999968210856
  0
VERTEX
  8
1
 10
20.1969902515411
 20
9.99999968210856
  0
VERTEX
  8
1
 10
20.1969902515411
 20
7.99999968210856
  0
VERTEX
  8
1
 10
18.4969902515411
 20
8.99999968210856
  0
SEQEND
  8
1
  0
LINE
  8
1
 10
18.4969902515411
 20
9.99999968210856
 11
18.4969902515411
 21
7.99999968210856
  0
LINE
  8
1
 10
18.4969902515411
 20
8.99999968210856
 11
17.4969902515411
 21
8.99999968210856
  0
POLYLINE
  8
1
 66
1
  0
VERTEX
  8
1
 10
5.99699025154114
 20
6.0000075460206
  0
VERTEX
  8
1
 10
8.99699025154114
 20
6.0000075460206
  0
VERTEX
  8
1
 10
8.99699025154114
 20
4.0000075460206
  0
VERTEX
  8
1
 10
5.99699025154114
 20
4.0000075460206
  0
VERTEX
  8
1
 10
5.99699025154114
 20
6.0000075460206
  0
SEQEND
  8
1
  0
LINE
  8
1
 10
6.99699025154114
 20
4.0000075460206
 11
7.99699025154114
 21
6.0000075460206
  0
POLYLINE
  8
1
 66
1
  0
VERTEX
  8
1
 10
12.9969863195851
 20
7.99999968210856
  0
VERTEX
  8
1
 10
15.9969863195851
 20
7.99999968210856
  0
VERTEX
  8
1
 10
15.9969863195851
 20
5.99999968210856
  0
VERTEX
  8
1
 10
12.9969863195851
 20
5.99999968210856
  0
VERTEX
  8
1
 10
12.9969863195851
 20
7.99999968210856
  0
SEQEND
  8
1
  0
LINE
  8
1
 10
13.9969863195851
 20
5.99999968210856
 11
14.9969863195851
 21
7.99999968210856
  0
ENDBLK
  8
0
  0
ENDSEC
  0
SECTION
  2
ENTITIES
  0
INSERT
  8
1
  2
B2135_00995373
 10
55.0673449357351
 20
12.0000000794729
  0
ENDSEC
  0
EOF
