  0
SECTION
  2
HEADER
  9
$LIMMIN
 10
0
 20
0
  9
$LIMMAX
 10
52.5
 20
74.25
  9
$EXTMIN
 10
0
 20
43.7784542036056
  9
$EXTMAX
 10
0
 20
19.8866887567103
  0
ENDSEC
  0
SECTION
  2
TABLES
  0
TABLE
  2
LTYPE
 70
9
  0
LTYPE
  2
CONTINUOUS
 70
64
  3
Solid line
 72
65
 73
0
 40
0
  0
LTYPE
  2
DASHED
 70
64
  3
__ __ __ __ __ __ __ __ __
 72
65
 73
2
 40
0.75
 49
0.5
 49
-0.25
  0
LTYPE
  2
DOT
 70
64
  3
...........................
 72
65
 73
2
 40
0.25
 49
0
 49
-0.25
  0
LTYPE
  2
DASHDOT
 70
64
  3
__ . __ . __ . __ . __ . __ . 
 72
65
 73
4
 40
1
 49
0.5
 49
-0.25
 49
0
 49
-0.25
  0
ENDTAB
  0
TABLE
  2
LAYER
 70
10
  0
LAYER
  2
1
 70
0
 62
7
  6
CONTINUOUS
  0
LAYER
  2
CONNECTIONS
 70
0
 62
-7
  6
CONTINUOUS
  0
ENDTAB
  0
ENDSEC
  0
SECTION
  2
BLOCKS
  0
BLOCK
  8
0
  2
TRICON
 70
0
 10
0
 20
0
  0
POLYLINE
  8
1
 70
1
 66
1
 40
0.5
 41
0.5
  0
VERTEX
  8
1
 10
-0.25
 20
0
 42
1
  0
VERTEX
  8
1
 10
0.25
 20
0
 42
1
  0
SEQEND
  8
1
  0
ENDBLK
  8
0
  0
BLOCK
  8
0
  2
TRICONSMALL
 70
0
 10
0
 20
0
  0
POLYLINE
  8
1
 70
1
 66
1
 40
0.25
 41
0.25
  0
VERTEX
  8
1
 10
-0.125
 20
0
 42
1
  0
VERTEX
  8
1
 10
0.125
 20
0
 42
1
  0
SEQEND
  8
1
  0
ENDBLK
  8
0
  0
BLOCK
  8
0
  2
TRICONCIRCLE
 70
0
 10
0
 20
0
  0
CIRCLE
  8
1
 10
0
 20
0
 40
0.5
  0
ENDBLK
  8
0
  0
BLOCK
  8
0
  2
LCBP0
 70
0
 10
0
 20
0
  0
LINE
  8
1
 10
0
 20
-0.46875
 11
0
 21
0.46875
  0
ENDBLK
  8
0
  0
BLOCK
  8
0
  2
LCBP1
 70
0
 10
0
 20
0
  0
LINE
  8
1
 10
0
 20
-0.625
 11
0
 21
0.625
  0
ENDBLK
  8
0
  0
BLOCK
  8
0
  2
LCBP2
 70
0
 10
0
 20
0
  0
LINE
  8
1
 10
0
 20
-0.9375
 11
0
 21
0.9375
  0
ENDBLK
  8
0
  0
BLOCK
  8
0
  2
LCA1
 70
0
 10
0
 20
0
  0
SOLID
  8
1
 62
7 
 10
0
 20
0
 11
-1.4
 21
-0.275
 12
-1.4
 22
0.275
 13
-1.4
 23
0.275
  0
ENDBLK
  8
0
  0
BLOCK
  8
0
  2
LCA2
 70
0
 10
0
 20
0
  0
SOLID
  8
1
 62
7 
 10
0
 20
0
 11
-1.65
 21
-0.525
 12
-1.65
 22
0.525
 13
-1.65
 23
0.525
  0
ENDBLK
  8
0
  0
BLOCK
  8
0
  2
LCA3
 70
0
 10
0
 20
0
  0
SOLID
  8
1
 62
7 
 10
0
 20
0
 11
-2.15
 21
-1.15
 12
-2.15
 22
1.15
 13
-2.15
 23
1.15
  0
ENDBLK
  8
0
  0
BLOCK
  8
0
  2
LCA1R
 70
0
 10
0
 20
0
  0
SOLID
  8
1
 62
7 
 10
0
 20
0
 11
1.4
 21
-0.275
 12
1.4
 22
0.275
 13
1.4
 23
0.275
  0
ENDBLK
  8
0
  0
BLOCK
  8
0
  2
LCA2R
 70
0
 10
0
 20
0
  0
SOLID
  8
1
 62
7 
 10
0
 20
0
 11
1.65
 21
-0.525
 12
1.65
 22
0.525
 13
1.65
 23
0.525
  0
ENDBLK
  8
0
  0
BLOCK
  8
0
  2
LCA3R
 70
0
 10
0
 20
0
  0
SOLID
  8
1
 62
7 
 10
0
 20
0
 11
2.15
 21
-1.15
 12
2.15
 22
1.15
 13
2.15
 23
1.15
  0
ENDBLK
  8
0
  0
BLOCK
  8
0
  2
B1638_00995371
 70
0
 10
0
 20
0
  0
TEXT
  8
1
 40
1.8
 41
0.75
  1
4
  7
STANDARD
 72
1
 73
2
 10
-20.630772878329
 20
-0.943344179672993
 11
-20.630772878329
 21
-0.943344179672993
  0
TEXT
  8
1
 40
1.8
 41
0.75
  1
1
  7
STANDARD
 72
1
 73
2
 10
-16.130772878329
 20
3.95665582032701
 11
-16.130772878329
 21
3.95665582032701
  0
TEXT
  8
1
 40
1.8
 41
0.75
  1
3
  7
STANDARD
 72
1
 73
2
 10
-16.130772878329
 20
-5.94334417967299
 11
-16.130772878329
 21
-5.94334417967299
  0
TEXT
  8
1
 40
1.8
 41
0.75
  1
BU
  7
STANDARD
 72
2
 10
19.5075349751467
 20
-8.60717569998601
 11
19.5075349751467
 21
-8.60717569998601
  0
TEXT
  8
1
 40
1.8
 41
0.75
  1
BK
  7
STANDARD
 72
2
 73
2
 10
19.6061487233348
 20
4.9882298064918
 11
19.6061487233348
 21
4.9882298064918
  0
TEXT
  8
1
 40
1.8
 41
0.75
  1
BN
  7
STANDARD
 72
2
 10
19.7256007982868
 20
7.39282430001398
 11
19.7256007982868
 21
7.39282430001398
  0
POLYLINE
  8
1
 70
1
 66
1
 40
0.5
 41
0.5
  0
VERTEX
  8
1
 10
9.61922712167104
 20
3.45665582032701
 42
1
  0
VERTEX
  8
1
 10
10.119227121671
 20
3.45665582032701
 42
1
  0
SEQEND
  8
1
  0
LINE
  8
1
 10
-2.13077287832896
 20
3.45665582032701
 11
19.369227121671
 21
3.45665582032701
  0
LINE
  8
1
 10
9.86922712167104
 20
3.65665582032701
 11
9.86922712167104
 21
2.65665582032701
  0
TEXT
  8
1
 40
1.8
 41
0.75
  1
YE
  7
STANDARD
 73
2
 10
10.9606446100849
 20
-2.1819157601565
 11
10.9606446100849
 21
-2.1819157601565
  0
POLYLINE
  8
1
 70
1
 66
1
 40
0.5
 41
0.5
  0
VERTEX
  8
1
 10
1.61922712167104
 20
7.05665582032701
 42
1
  0
VERTEX
  8
1
 10
2.11922712167104
 20
7.05665582032701
 42
1
  0
SEQEND
  8
1
  0
POLYLINE
  8
1
 70
1
 66
1
 40
0.5
 41
0.5
  0
VERTEX
  8
1
 10
1.61922712167104
 20
-8.94334417967299
 42
1
  0
VERTEX
  8
1
 10
2.11922712167104
 20
-8.94334417967299
 42
1
  0
SEQEND
  8
1
  0
POLYLINE
  8
1
 70
1
 66
1
 40
0.5
 41
0.5
  0
VERTEX
  8
1
 10
9.61922712167104
 20
-8.94334417967299
 42
1
  0
VERTEX
  8
1
 10
10.119227121671
 20
-8.94334417967299
 42
1
  0
SEQEND
  8
1
  0
LINE
  8
1
 10
-2.13077287832896
 20
-8.94334417967299
 11
19.369227121671
 21
-8.94334417967299
  0
LINE
  8
1
 10
1.86922712167104
 20
-6.94334417967299
 11
1.86922712167104
 21
-8.94334417967299
  0
LINE
  8
1
 10
9.86922712167104
 20
-8.94334417967299
 11
9.86922712167104
 21
-6.94334417967299
  0
LINE
  8
1
 10
1.86922712167104
 20
7.05665582032701
 11
1.86922712167104
 21
3.05665582032701
  0
LINE
  8
1
 10
-2.13077287832896
 20
7.05665582032701
 11
19.369227121671
 21
7.05665582032701
  0
TEXT
  8
1
 40
1.8
 41
0.75
  1
GN
  7
STANDARD
 72
2
 73
2
 10
0.925600798286827
 20
-2.18191576015651
 11
0.925600798286827
 21
-2.18191576015651
  0
LINE
  8
1
 10
21.4708914404885
 20
7.50826002228975
 11
21.4708914404885
 21
6.50826002228975
  0
LINE
  8
1
 10
20.889227121671
 20
-8.99173997771025
 11
21.889227121671
 21
-8.99173997771025
  0
LINE
  8
1
 10
20.889227121671
 20
7.00826002228975
 11
21.889227121671
 21
7.00826002228975
  0
CIRCLE
  8
1
 10
-16.130772878329
 20
-0.943344179672993
 40
3
  0
CIRCLE
  8
1
 10
19.869227121671
 20
-8.94334417967299
 40
0.5
  0
CIRCLE
  8
1
 10
19.869227121671
 20
3.40826002228975
 40
0.5
  0
CIRCLE
  8
1
 10
19.869227121671
 20
7.05665582032701
 40
0.5
  0
CIRCLE
  8
1
 10
-18.130772878329
 20
-0.943344179672993
 40
0.5
  0
CIRCLE
  8
1
 10
-16.130772878329
 20
-2.94334417967299
 40
0.5
  0
CIRCLE
  8
1
 10
-16.130772878329
 20
1.05665582032701
 40
0.5
  0
LINE
  8
1
 10
-3.13077287832896
 20
-8.94334417967299
 11
-2.13077287832896
 21
-8.94334417967299
  0
ARC
  8
1
 10
-4.13077287832896
 20
-8.94334417967299
 40
1
 50
270
 51
90
  0
LINE
  8
1
 10
-3.13077287832896
 20
3.45665582032701
 11
-2.13077287832896
 21
3.45665582032701
  0
ARC
  8
1
 10
-4.13077287832896
 20
3.45665582032701
 40
1
 50
270
 51
90
  0
LINE
  8
1
 10
-3.13077287832896
 20
7.05665582032701
 11
-2.13077287832896
 21
7.05665582032701
  0
ARC
  8
1
 10
-4.13077287832896
 20
7.05665582032701
 40
1
 50
270
 51
90
  0
LINE
  8
1
 10
9.86922712167104
 20
1.85665582032701
 11
9.86922712167104
 21
2.85665582032701
  0
LINE
  8
1
 10
9.86922712167104
 20
-2.14334417967299
 11
9.86922712167104
 21
-3.14334417967299
  0
POLYLINE
  8
1
 66
1
  0
VERTEX
  8
1
 10
9.36922712167104
 20
-2.14334417967299
  0
VERTEX
  8
1
 10
10.369227121671
 20
-2.14334417967299
  0
VERTEX
  8
1
 10
10.369227121671
 20
1.85665582032701
  0
VERTEX
  8
1
 10
9.36922712167104
 20
1.85665582032701
  0
VERTEX
  8
1
 10
9.36922712167104
 20
-2.14334417967299
  0
SEQEND
  8
1
  0
LINE
  8
1
 10
1.86922712167104
 20
1.85665582032701
 11
1.86922712167104
 21
2.85665582032701
  0
LINE
  8
1
 10
1.86922712167104
 20
-2.14334417967299
 11
1.86922712167104
 21
-3.14334417967299
  0
POLYLINE
  8
1
 66
1
  0
VERTEX
  8
1
 10
1.36922712167104
 20
-2.14334417967299
  0
VERTEX
  8
1
 10
2.36922712167104
 20
-2.14334417967299
  0
VERTEX
  8
1
 10
2.36922712167104
 20
1.85665582032701
  0
VERTEX
  8
1
 10
1.36922712167104
 20
1.85665582032701
  0
VERTEX
  8
1
 10
1.36922712167104
 20
-2.14334417967299
  0
SEQEND
  8
1
  0
LINE
  8
1
 10
9.86922712167104
 20
-5.97392989320548
 11
9.86922712167104
 21
-6.97392989320548
  0
LINE
  8
1
 10
9.86922712167104
 20
-4.20258862410912
 11
9.86922712167104
 21
-2.9203987086139
  0
LINE
  8
1
 10
11.6555283113268
 20
-5.18706537528056
 11
12.3626350925133
 21
-4.47995859409401
  0
SOLID
  8
1
 10
12.6555283113268
 20
-4.18706537528056
 11
12.0191322082589
 21
-4.54061876587384
 12
12.6555283113268
 22
-4.18706537528056
 13
12.3019749207335
 23
-4.82346147834846
  0
LINE
  8
1
 10
11.2555283113268
 20
-4.58706537528056
 11
11.9626350925133
 21
-3.87995859409402
  0
SOLID
  8
1
 10
12.2555283113268
 20
-3.58706537528056
 11
11.6191322082589
 21
-3.94061876587384
 12
12.2555283113268
 22
-3.58706537528056
 13
11.9019749207335
 23
-4.22346147834846
  0
POLYLINE
  8
1
 66
1
  0
VERTEX
  8
1
 10
9.85552831132677
 20
-5.9203987086139
  0
VERTEX
  8
1
 10
8.85552831132677
 20
-4.22039870861389
  0
VERTEX
  8
1
 10
10.8555283113268
 20
-4.22039870861389
  0
VERTEX
  8
1
 10
9.85552831132677
 20
-5.9203987086139
  0
SEQEND
  8
1
  0
LINE
  8
1
 10
8.85552831132677
 20
-5.92039870861389
 11
10.8555283113268
 21
-5.92039870861389
  0
LINE
  8
1
 10
1.86922712167104
 20
-5.99173997771025
 11
1.86922712167104
 21
-6.99173997771025
  0
LINE
  8
1
 10
1.86922712167104
 20
-4.22039870861389
 11
1.86922712167104
 21
-2.93820879311867
  0
LINE
  8
1
 10
3.65552831132677
 20
-5.20487545978533
 11
4.36263509251332
 21
-4.49776867859878
  0
SOLID
  8
1
 10
4.65552831132679
 20
-4.20487545978533
 11
4.01913220825887
 21
-4.5584288503786
 12
4.65552831132679
 22
-4.20487545978533
 13
4.30197492073351
 23
-4.84127156285323
  0
LINE
  8
1
 10
3.25552831132677
 20
-4.60487545978533
 11
3.96263509251332
 21
-3.89776867859879
  0
SOLID
  8
1
 10
4.25552831132678
 20
-3.60487545978533
 11
3.61913220825888
 21
-3.95842885037861
 12
4.25552831132678
 22
-3.60487545978533
 13
3.90197492073351
 23
-4.24127156285323
  0
POLYLINE
  8
1
 66
1
  0
VERTEX
  8
1
 10
1.85552831132677
 20
-5.93820879311866
  0
VERTEX
  8
1
 10
0.855528311326774
 20
-4.23820879311866
  0
VERTEX
  8
1
 10
2.85552831132677
 20
-4.23820879311866
  0
VERTEX
  8
1
 10
1.85552831132677
 20
-5.93820879311866
  0
SEQEND
  8
1
  0
LINE
  8
1
 10
0.855528311326774
 20
-5.93820879311866
 11
2.85552831132677
 21
-5.93820879311866
  0
CIRCLE
  8
CONNECTIONS
 10
-3.13077287832895
 20
-8.94334417967299
 40
0
  0
CIRCLE
  8
CONNECTIONS
 10
-3.13077287832895
 20
3.45665582032701
 40
0
  0
CIRCLE
  8
CONNECTIONS
 10
-3.13077287832895
 20
7.05665582032701
 40
0
  0
ENDBLK
  8
0
  0
ENDSEC
  0
SECTION
  2
ENTITIES
  0
INSERT
  8
1
  2
B1638_00995371
 10
21.889227121671
 20
9.943344179673
  0
ENDSEC
  0
EOF
