  0
SECTION
  2
HEADER
  9
$LIMMIN
 10
0
 20
0
  9
$LIMMAX
 10
52.5
 20
74.25
  9
$EXTMIN
 10
0
 20
43.8631409188188
  9
$EXTMAX
 10
0
 20
20.2000001986821
  0
ENDSEC
  0
SECTION
  2
TABLES
  0
TABLE
  2
LTYPE
 70
9
  0
LTYPE
  2
CONTINUOUS
 70
64
  3
Solid line
 72
65
 73
0
 40
0
  0
LTYPE
  2
DASHED
 70
64
  3
__ __ __ __ __ __ __ __ __
 72
65
 73
2
 40
0.75
 49
0.5
 49
-0.25
  0
LTYPE
  2
DOT
 70
64
  3
...........................
 72
65
 73
2
 40
0.25
 49
0
 49
-0.25
  0
LTYPE
  2
DASHDOT
 70
64
  3
__ . __ . __ . __ . __ . __ . 
 72
65
 73
4
 40
1
 49
0.5
 49
-0.25
 49
0
 49
-0.25
  0
ENDTAB
  0
TABLE
  2
LAYER
 70
10
  0
LAYER
  2
1
 70
0
 62
7
  6
CONTINUOUS
  0
LAYER
  2
CONNECTIONS
 70
0
 62
-7
  6
CONTINUOUS
  0
ENDTAB
  0
ENDSEC
  0
SECTION
  2
BLOCKS
  0
BLOCK
  8
0
  2
TRICON
 70
0
 10
0
 20
0
  0
POLYLINE
  8
1
 70
1
 66
1
 40
0.5
 41
0.5
  0
VERTEX
  8
1
 10
-0.25
 20
0
 42
1
  0
VERTEX
  8
1
 10
0.25
 20
0
 42
1
  0
SEQEND
  8
1
  0
ENDBLK
  8
0
  0
BLOCK
  8
0
  2
TRICONSMALL
 70
0
 10
0
 20
0
  0
POLYLINE
  8
1
 70
1
 66
1
 40
0.25
 41
0.25
  0
VERTEX
  8
1
 10
-0.125
 20
0
 42
1
  0
VERTEX
  8
1
 10
0.125
 20
0
 42
1
  0
SEQEND
  8
1
  0
ENDBLK
  8
0
  0
BLOCK
  8
0
  2
TRICONCIRCLE
 70
0
 10
0
 20
0
  0
CIRCLE
  8
1
 10
0
 20
0
 40
0.5
  0
ENDBLK
  8
0
  0
BLOCK
  8
0
  2
LCBP0
 70
0
 10
0
 20
0
  0
LINE
  8
1
 10
0
 20
-0.46875
 11
0
 21
0.46875
  0
ENDBLK
  8
0
  0
BLOCK
  8
0
  2
LCBP1
 70
0
 10
0
 20
0
  0
LINE
  8
1
 10
0
 20
-0.625
 11
0
 21
0.625
  0
ENDBLK
  8
0
  0
BLOCK
  8
0
  2
LCBP2
 70
0
 10
0
 20
0
  0
LINE
  8
1
 10
0
 20
-0.9375
 11
0
 21
0.9375
  0
ENDBLK
  8
0
  0
BLOCK
  8
0
  2
LCA1
 70
0
 10
0
 20
0
  0
SOLID
  8
1
 62
7 
 10
0
 20
0
 11
-1.4
 21
-0.275
 12
-1.4
 22
0.275
 13
-1.4
 23
0.275
  0
ENDBLK
  8
0
  0
BLOCK
  8
0
  2
LCA2
 70
0
 10
0
 20
0
  0
SOLID
  8
1
 62
7 
 10
0
 20
0
 11
-1.65
 21
-0.525
 12
-1.65
 22
0.525
 13
-1.65
 23
0.525
  0
ENDBLK
  8
0
  0
BLOCK
  8
0
  2
LCA3
 70
0
 10
0
 20
0
  0
SOLID
  8
1
 62
7 
 10
0
 20
0
 11
-2.15
 21
-1.15
 12
-2.15
 22
1.15
 13
-2.15
 23
1.15
  0
ENDBLK
  8
0
  0
BLOCK
  8
0
  2
LCA1R
 70
0
 10
0
 20
0
  0
SOLID
  8
1
 62
7 
 10
0
 20
0
 11
1.4
 21
-0.275
 12
1.4
 22
0.275
 13
1.4
 23
0.275
  0
ENDBLK
  8
0
  0
BLOCK
  8
0
  2
LCA2R
 70
0
 10
0
 20
0
  0
SOLID
  8
1
 62
7 
 10
0
 20
0
 11
1.65
 21
-0.525
 12
1.65
 22
0.525
 13
1.65
 23
0.525
  0
ENDBLK
  8
0
  0
BLOCK
  8
0
  2
LCA3R
 70
0
 10
0
 20
0
  0
SOLID
  8
1
 62
7 
 10
0
 20
0
 11
2.15
 21
-1.15
 12
2.15
 22
1.15
 13
2.15
 23
1.15
  0
ENDBLK
  8
0
  0
BLOCK
  8
0
  2
B1615_00995370
 70
0
 10
0
 20
0
  0
TEXT
  8
1
 40
1.8
 41
0.75
  1
4
  7
STANDARD
 72
1
 73
2
 10
-20.6731162359355
 20
-1.1
 11
-20.6731162359355
 21
-1.1
  0
TEXT
  8
1
 40
1.8
 41
0.75
  1
1
  7
STANDARD
 72
1
 73
2
 10
-16.1731162359355
 20
3.8
 11
-16.1731162359355
 21
3.8
  0
TEXT
  8
1
 40
1.8
 41
0.75
  1
3
  7
STANDARD
 72
1
 73
2
 10
-16.1731162359355
 20
-6.1
 11
-16.1731162359355
 21
-6.1
  0
TEXT
  8
1
 40
1.8
 41
0.75
  1
BK
  7
STANDARD
 72
2
 73
2
 10
19.3740439871687
 20
-3.9252599398295
 11
19.3740439871687
 21
-3.9252599398295
  0
TEXT
  8
1
 40
1.8
 41
0.75
  1
BN
  7
STANDARD
 72
2
 73
2
 10
19.5921098103088
 20
8.37474006017049
 11
19.5921098103088
 21
8.37474006017049
  0
TEXT
  8
1
 40
1.8
 41
0.75
  1
BU
  7
STANDARD
 72
2
 73
2
 10
19.3737741291263
 20
-7.5652599398295
 11
19.3737741291263
 21
-7.5652599398295
  0
LINE
  8
1
 10
-2.17311623593552
 20
-5.4
 11
19.3268837640645
 21
-5.4
  0
POLYLINE
  8
1
 70
1
 66
1
 40
0.5
 41
0.5
  0
VERTEX
  8
1
 10
9.57688376406448
 20
-5.5
 42
1
  0
VERTEX
  8
1
 10
10.0768837640645
 20
-5.5
 42
1
  0
SEQEND
  8
1
  0
LINE
  8
1
 10
9.82688376406448
 20
-3.7
 11
9.82688376406448
 21
-5.7
  0
TEXT
  8
1
 40
1.8
 41
0.75
  1
YE
  7
STANDARD
 73
2
 10
10.7271536221069
 20
0.674740060170498
 11
10.7271536221069
 21
0.674740060170498
  0
POLYLINE
  8
1
 70
1
 66
1
 40
0.5
 41
0.5
  0
VERTEX
  8
1
 10
1.57688376406448
 20
-9.1
 42
1
  0
VERTEX
  8
1
 10
2.07688376406448
 20
-9.1
 42
1
  0
SEQEND
  8
1
  0
POLYLINE
  8
1
 70
1
 66
1
 40
0.5
 41
0.5
  0
VERTEX
  8
1
 10
1.57688376406448
 20
6.9
 42
1
  0
VERTEX
  8
1
 10
2.07688376406448
 20
6.9
 42
1
  0
SEQEND
  8
1
  0
POLYLINE
  8
1
 70
1
 66
1
 40
0.5
 41
0.5
  0
VERTEX
  8
1
 10
9.57688376406448
 20
6.9
 42
1
  0
VERTEX
  8
1
 10
10.0768837640645
 20
6.9
 42
1
  0
SEQEND
  8
1
  0
LINE
  8
1
 10
-2.17311623593552
 20
6.9
 11
19.3268837640645
 21
6.9
  0
LINE
  8
1
 10
-2.17311623593552
 20
-9.1
 11
19.3268837640645
 21
-9.1
  0
LINE
  8
1
 10
1.82688376406448
 20
6.9
 11
1.82688376406448
 21
5.9
  0
LINE
  8
1
 10
9.82688376406448
 20
6.9
 11
9.82688376406448
 21
5.9
  0
LINE
  8
1
 10
1.82688376406448
 20
-4.1
 11
1.82688376406448
 21
-9.1
  0
TEXT
  8
1
 40
1.8
 41
0.75
  1
GN
  7
STANDARD
 72
2
 73
2
 10
0.892109810308781
 20
0.474740060170495
 11
0.892109810308781
 21
0.474740060170495
  0
LINE
  8
1
 10
20.9315704792776
 20
-9.13542158743278
 11
21.9315704792776
 21
-9.13542158743278
  0
LINE
  8
1
 10
20.9315704792776
 20
6.86457841256722
 11
21.9315704792776
 21
6.86457841256722
  0
LINE
  8
1
 10
21.4315704792776
 20
7.36457841256722
 11
21.4315704792776
 21
6.36457841256722
  0
CIRCLE
  8
1
 10
-16.1731162359355
 20
-1.1
 40
3
  0
CIRCLE
  8
1
 10
19.8268837640645
 20
-9.1
 40
0.5
  0
CIRCLE
  8
1
 10
19.8268837640645
 20
-5.44839579803725
 40
0.5
  0
CIRCLE
  8
1
 10
19.8268837640645
 20
6.9
 40
0.5
  0
CIRCLE
  8
1
 10
-18.1731162359355
 20
-1.1
 40
0.5
  0
CIRCLE
  8
1
 10
-16.1731162359355
 20
-3.1
 40
0.5
  0
CIRCLE
  8
1
 10
-16.1731162359355
 20
0.900000000000001
 40
0.5
  0
LINE
  8
1
 10
-3.17311623593552
 20
-9.1
 11
-2.17311623593552
 21
-9.1
  0
ARC
  8
1
 10
-4.17311623593552
 20
-9.1
 40
1
 50
270
 51
90
  0
LINE
  8
1
 10
-3.17311623593552
 20
-5.4
 11
-2.17311623593552
 21
-5.4
  0
ARC
  8
1
 10
-4.17311623593552
 20
-5.4
 40
1
 50
270
 51
90
  0
LINE
  8
1
 10
-3.17311623593552
 20
6.9
 11
-2.17311623593552
 21
6.9
  0
ARC
  8
1
 10
-4.17311623593552
 20
6.9
 40
1
 50
270
 51
90
  0
LINE
  8
1
 10
9.82688376406448
 20
4.9
 11
9.82688376406448
 21
5.9
  0
LINE
  8
1
 10
9.82688376406448
 20
0.900000000000001
 11
9.82688376406448
 21
-0.099999999999999
  0
POLYLINE
  8
1
 66
1
  0
VERTEX
  8
1
 10
9.32688376406448
 20
0.900000000000002
  0
VERTEX
  8
1
 10
10.3268837640645
 20
0.900000000000002
  0
VERTEX
  8
1
 10
10.3268837640645
 20
4.9
  0
VERTEX
  8
1
 10
9.32688376406448
 20
4.9
  0
VERTEX
  8
1
 10
9.32688376406448
 20
0.900000000000002
  0
SEQEND
  8
1
  0
LINE
  8
1
 10
1.82688376406448
 20
4.9
 11
1.82688376406448
 21
5.9
  0
LINE
  8
1
 10
1.82688376406448
 20
0.900000000000001
 11
1.82688376406448
 21
-0.099999999999999
  0
POLYLINE
  8
1
 66
1
  0
VERTEX
  8
1
 10
1.32688376406448
 20
0.900000000000002
  0
VERTEX
  8
1
 10
2.32688376406448
 20
0.900000000000002
  0
VERTEX
  8
1
 10
2.32688376406448
 20
4.9
  0
VERTEX
  8
1
 10
1.32688376406448
 20
4.9
  0
VERTEX
  8
1
 10
1.32688376406448
 20
0.900000000000002
  0
SEQEND
  8
1
  0
LINE
  8
1
 10
9.82688376406448
 20
-3.13058571353249
 11
9.82688376406448
 21
-4.13058571353249
  0
LINE
  8
1
 10
9.82688376406448
 20
-1.35924444443613
 11
9.82688376406448
 21
-0.0770545289409081
  0
LINE
  8
1
 10
11.6131849537202
 20
-2.34372119560757
 11
12.3202917349068
 21
-1.63661441442102
  0
SOLID
  8
1
 10
12.6131849537202
 20
-1.34372119560757
 11
11.9767888506523
 21
-1.69727458620084
 12
12.6131849537202
 22
-1.34372119560757
 13
12.2596315631269
 23
-1.98011729867547
  0
LINE
  8
1
 10
11.2131849537202
 20
-1.74372119560757
 11
11.9202917349068
 21
-1.03661441442103
  0
SOLID
  8
1
 10
12.2131849537202
 20
-0.743721195607565
 11
11.5767888506523
 21
-1.09727458620085
 12
12.2131849537202
 22
-0.743721195607565
 13
11.8596315631269
 23
-1.38011729867547
  0
POLYLINE
  8
1
 66
1
  0
VERTEX
  8
1
 10
9.81318495372021
 20
-3.0770545289409
  0
VERTEX
  8
1
 10
8.81318495372021
 20
-1.3770545289409
  0
VERTEX
  8
1
 10
10.8131849537202
 20
-1.3770545289409
  0
VERTEX
  8
1
 10
9.81318495372021
 20
-3.0770545289409
  0
SEQEND
  8
1
  0
LINE
  8
1
 10
8.81318495372021
 20
-3.0770545289409
 11
10.8131849537202
 21
-3.0770545289409
  0
LINE
  8
1
 10
1.82688376406448
 20
-3.14839579803726
 11
1.82688376406448
 21
-4.14839579803725
  0
LINE
  8
1
 10
1.82688376406448
 20
-1.3770545289409
 11
1.82688376406448
 21
-0.0948646134456771
  0
LINE
  8
1
 10
3.61318495372021
 20
-2.36153128011234
 11
4.32029173490676
 21
-1.65442449892579
  0
SOLID
  8
1
 10
4.61318495372023
 20
-1.36153128011234
 11
3.97678885065231
 21
-1.71508467070561
 12
4.61318495372023
 22
-1.36153128011234
 13
4.25963156312694
 23
-1.99792738318023
  0
LINE
  8
1
 10
3.21318495372021
 20
-1.76153128011234
 11
3.92029173490675
 21
-1.0544244989258
  0
SOLID
  8
1
 10
4.21318495372021
 20
-0.761531280112332
 11
3.57678885065231
 21
-1.11508467070561
 12
4.21318495372021
 22
-0.761531280112332
 13
3.85963156312694
 23
-1.39792738318024
  0
POLYLINE
  8
1
 66
1
  0
VERTEX
  8
1
 10
1.81318495372021
 20
-3.09486461344567
  0
VERTEX
  8
1
 10
0.81318495372021
 20
-1.39486461344566
  0
VERTEX
  8
1
 10
2.81318495372021
 20
-1.39486461344566
  0
VERTEX
  8
1
 10
1.81318495372021
 20
-3.09486461344567
  0
SEQEND
  8
1
  0
LINE
  8
1
 10
0.81318495372021
 20
-3.09486461344567
 11
2.81318495372021
 21
-3.09486461344567
  0
CIRCLE
  8
CONNECTIONS
 10
-3.17311623593552
 20
-9.1
 40
0
  0
CIRCLE
  8
CONNECTIONS
 10
-3.17311623593552
 20
-6.1
 40
0
  0
CIRCLE
  8
CONNECTIONS
 10
-3.17311623593552
 20
6.9
 40
0
  0
ENDBLK
  8
0
  0
ENDSEC
  0
SECTION
  2
ENTITIES
  0
INSERT
  8
1
  2
B1615_00995370
 10
21.9315704792776
 20
10.1
  0
ENDSEC
  0
EOF
