  0
SECTION
  2
HEADER
  9
$LIMMIN
 10
0
 20
0
  9
$LIMMAX
 10
52.5
 20
74.25
  9
$EXTMIN
 10
0
 20
108.166666666667
  9
$EXTMAX
 10
0
 20
46
  0
ENDSEC
  0
SECTION
  2
TABLES
  0
TABLE
  2
LTYPE
 70
9
  0
LTYPE
  2
CONTINUOUS
 70
64
  3
Solid line
 72
65
 73
0
 40
0
  0
LTYPE
  2
DASHED
 70
64
  3
__ __ __ __ __ __ __ __ __
 72
65
 73
2
 40
0.75
 49
0.5
 49
-0.25
  0
LTYPE
  2
DOT
 70
64
  3
...........................
 72
65
 73
2
 40
0.25
 49
0
 49
-0.25
  0
LTYPE
  2
DASHDOT
 70
64
  3
__ . __ . __ . __ . __ . __ . 
 72
65
 73
4
 40
1
 49
0.5
 49
-0.25
 49
0
 49
-0.25
  0
ENDTAB
  0
TABLE
  2
LAYER
 70
10
  0
LAYER
  2
1
 70
0
 62
7
  6
CONTINUOUS
  0
LAYER
  2
CONNECTIONS
 70
0
 62
-7
  6
CONTINUOUS
  0
ENDTAB
  0
ENDSEC
  0
SECTION
  2
BLOCKS
  0
BLOCK
  8
0
  2
TRICON
 70
0
 10
0
 20
0
  0
POLYLINE
  8
1
 70
1
 66
1
 40
0.5
 41
0.5
  0
VERTEX
  8
1
 10
-0.25
 20
0
 42
1
  0
VERTEX
  8
1
 10
0.25
 20
0
 42
1
  0
SEQEND
  8
1
  0
ENDBLK
  8
0
  0
BLOCK
  8
0
  2
TRICONSMALL
 70
0
 10
0
 20
0
  0
POLYLINE
  8
1
 70
1
 66
1
 40
0.25
 41
0.25
  0
VERTEX
  8
1
 10
-0.125
 20
0
 42
1
  0
VERTEX
  8
1
 10
0.125
 20
0
 42
1
  0
SEQEND
  8
1
  0
ENDBLK
  8
0
  0
BLOCK
  8
0
  2
TRICONCIRCLE
 70
0
 10
0
 20
0
  0
CIRCLE
  8
1
 10
0
 20
0
 40
0.5
  0
ENDBLK
  8
0
  0
BLOCK
  8
0
  2
LCBP0
 70
0
 10
0
 20
0
  0
LINE
  8
1
 10
0
 20
-0.46875
 11
0
 21
0.46875
  0
ENDBLK
  8
0
  0
BLOCK
  8
0
  2
LCBP1
 70
0
 10
0
 20
0
  0
LINE
  8
1
 10
0
 20
-0.625
 11
0
 21
0.625
  0
ENDBLK
  8
0
  0
BLOCK
  8
0
  2
LCBP2
 70
0
 10
0
 20
0
  0
LINE
  8
1
 10
0
 20
-0.9375
 11
0
 21
0.9375
  0
ENDBLK
  8
0
  0
BLOCK
  8
0
  2
LCA1
 70
0
 10
0
 20
0
  0
SOLID
  8
1
 62
7 
 10
0
 20
0
 11
-1.4
 21
-0.275
 12
-1.4
 22
0.275
 13
-1.4
 23
0.275
  0
ENDBLK
  8
0
  0
BLOCK
  8
0
  2
LCA2
 70
0
 10
0
 20
0
  0
SOLID
  8
1
 62
7 
 10
0
 20
0
 11
-1.65
 21
-0.525
 12
-1.65
 22
0.525
 13
-1.65
 23
0.525
  0
ENDBLK
  8
0
  0
BLOCK
  8
0
  2
LCA3
 70
0
 10
0
 20
0
  0
SOLID
  8
1
 62
7 
 10
0
 20
0
 11
-2.15
 21
-1.15
 12
-2.15
 22
1.15
 13
-2.15
 23
1.15
  0
ENDBLK
  8
0
  0
BLOCK
  8
0
  2
LCA1R
 70
0
 10
0
 20
0
  0
SOLID
  8
1
 62
7 
 10
0
 20
0
 11
1.4
 21
-0.275
 12
1.4
 22
0.275
 13
1.4
 23
0.275
  0
ENDBLK
  8
0
  0
BLOCK
  8
0
  2
LCA2R
 70
0
 10
0
 20
0
  0
SOLID
  8
1
 62
7 
 10
0
 20
0
 11
1.65
 21
-0.525
 12
1.65
 22
0.525
 13
1.65
 23
0.525
  0
ENDBLK
  8
0
  0
BLOCK
  8
0
  2
LCA3R
 70
0
 10
0
 20
0
  0
SOLID
  8
1
 62
7 
 10
0
 20
0
 11
2.15
 21
-1.15
 12
2.15
 22
1.15
 13
2.15
 23
1.15
  0
ENDBLK
  8
0
  0
BLOCK
  8
0
  2
B165935_00995356
 70
0
 10
0
 20
0
  0
POLYLINE
  8
1
  6
DASHDOT
 66
1
  0
VERTEX
  8
1
 10
-54.0833333333333
 20
19
  0
VERTEX
  8
1
 10
49.9166666666667
 20
19
  0
VERTEX
  8
1
 10
49.9166666666667
 20
-19
  0
VERTEX
  8
1
 10
-54.0833333333333
 20
-19
  0
VERTEX
  8
1
 10
-54.0833333333333
 20
19
  0
SEQEND
  8
1
  0
TEXT
  8
1
 40
2.475
 41
0.75
  1
4
  7
STANDARD
 72
2
 73
3
 10
-25.0833333333333
 20
23.38125
 11
-25.0833333333333
 21
23.38125
  0
TEXT
  8
1
 40
2.475
 41
0.75
  1
5
  7
STANDARD
 72
2
 10
-25.4007228215535
 20
-23.1347325960795
 11
-25.4007228215535
 21
-23.1347325960795
  0
TEXT
  8
1
 40
2.475
 41
0.75
  1
3
  7
STANDARD
 10
-14.7659438451131
 20
-23.1347325960795
  0
TEXT
  8
1
 40
2.475
 41
0.75
  1
1
  7
STANDARD
 72
2
 10
32.5992771784465
 20
-23.1347325960795
 11
32.5992771784465
 21
-23.1347325960795
  0
TEXT
  8
1
 40
2.475
 41
0.75
  1
2
  7
STANDARD
 73
3
 10
39.0559173583985
 20
23.38125
 11
39.0559173583985
 21
23.38125
  0
TEXT
  8
1
 40
2.475
 41
0.75
  1
2
  7
STANDARD
 73
2
 10
50.2340561548869
 20
18
 11
50.2340561548869
 21
18
  0
LINE
  8
1
 10
49.9166666666667
 20
15
 11
54.0833333333333
 21
15
  0
INSERT
  8
1
  2
LCBP1
 10
54.0833333333333
 20
15
 50
0
  0
LINE
  8
1
 10
-24.0833333333333
 20
19
 11
-24.0833333333333
 21
23
  0
LINE
  8
1
 10
37.9166666666667
 20
19
 11
37.9166666666667
 21
23
  0
LINE
  8
1
 10
-24.0833333333333
 20
-19
 11
-24.0833333333333
 21
-23
  0
LINE
  8
1
 10
-16.0833333333333
 20
-19
 11
-16.0833333333333
 21
-23
  0
LINE
  8
1
 10
33.9166666666667
 20
-19
 11
33.9166666666667
 21
-23
  0
TEXT
  8
1
 40
2.475
 41
0.75
  1
14
  7
STANDARD
 10
6.98432350158695
 20
0.865267403920491
  0
TEXT
  8
1
 40
2.475
 41
0.75
  1
14
  7
STANDARD
 10
-46.815676498413
 20
0.865267403920491
  0
LINE
  8
1
 10
37.9166666666667
 20
15
 11
49.9166666666667
 21
15
  0
LINE
  8
1
 10
-24.0833333333333
 20
-5
 11
-24.0833333333333
 21
-19
  0
LINE
  8
1
 10
-16.0833333333333
 20
-5
 11
-16.0833333333333
 21
-19
  0
LINE
  8
1
 10
33.9166666666667
 20
-5
 11
33.9166666666667
 21
-19
  0
LINE
  8
1
 10
37.9166666666667
 20
3
 11
37.9166666666667
 21
19
  0
LINE
  8
1
 10
-24.0833333333333
 20
3
 11
-24.0833333333333
 21
19
  0
POLYLINE
  8
1
 70
1
 66
1
 40
0.5
 41
0.5
  0
VERTEX
  8
1
 10
37.6666666666667
 20
15
 42
1
  0
VERTEX
  8
1
 10
38.1666666666667
 20
15
 42
1
  0
SEQEND
  8
1
  0
POLYLINE
  8
1
 70
1
 66
1
 40
0.5
 41
0.5
  0
VERTEX
  8
1
 10
-24.3333333333333
 20
-15
 42
1
  0
VERTEX
  8
1
 10
-23.8333333333333
 20
-15
 42
1
  0
SEQEND
  8
1
  0
LINE
  8
1
 10
-24.0833333333333
 20
-15
 11
29.9166666666667
 21
-15
  0
LINE
  8
1
  6
DOT
 10
-44.0833333333333
 20
-7
 11
31.9166666666667
 21
-7
  0
LINE
  8
1
  6
DOT
 10
31.9166666666667
 20
-7
 11
33.9166666666667
 21
-5
  0
LINE
  8
1
 10
29.9166666666667
 20
-5
 11
29.9166666666667
 21
-15
  0
LINE
  8
1
 10
37.9166666666667
 20
-5
 11
37.9166666666667
 21
-11
  0
LINE
  8
1
 10
-20.0833333333333
 20
-5
 11
-20.0833333333333
 21
-11
  0
LINE
  8
1
 10
-0.0833333333332954
 20
15
 11
-0.0833333333332954
 21
-11
  0
LINE
  8
1
 10
-4.08333333333329
 20
11
 11
-4.08333333333329
 21
-11
  0
LINE
  8
1
 10
-0.0833333333332954
 20
-11
 11
37.9166666666667
 21
-11
  0
LINE
  8
1
 10
-4.08333333333329
 20
-11
 11
-20.0833333333333
 21
-11
  0
POLYLINE
  8
1
 70
1
 66
1
 40
0.5
 41
0.5
  0
VERTEX
  8
1
 10
9.6666666666667
 20
-7
 42
1
  0
VERTEX
  8
1
 10
10.1666666666667
 20
-7
 42
1
  0
SEQEND
  8
1
  0
LINE
  8
1
  6
DOT
 10
9.9166666666667
 20
-7
 11
9.9166666666667
 21
-5
  0
LINE
  8
1
  6
DOT
 10
-44.0833333333333
 20
-5
 11
-44.0833333333333
 21
-7
  0
LINE
  8
1
 10
29.9166666666667
 20
11
 11
-4.08333333333329
 21
11
  0
LINE
  8
1
 10
29.9166666666667
 20
3
 11
29.9166666666667
 21
11
  0
LINE
  8
1
 10
-16.0833333333333
 20
15
 11
-0.0833333333332954
 21
15
  0
LINE
  8
1
 10
-16.0833333333333
 20
3
 11
-16.0833333333333
 21
15
  0
LINE
  8
1
 10
5.9166666666667
 20
-5
 11
7.9166666666667
 21
-1
  0
POLYLINE
  8
1
 66
1
  0
VERTEX
  8
1
 10
3.9166666666667
 20
-1
  0
VERTEX
  8
1
 10
9.9166666666667
 20
-1
  0
VERTEX
  8
1
 10
9.9166666666667
 20
-5
  0
VERTEX
  8
1
 10
3.9166666666667
 20
-5
  0
VERTEX
  8
1
 10
3.9166666666667
 20
-1
  0
SEQEND
  8
1
  0
LINE
  8
1
 10
-48.0833333333333
 20
-5
 11
-46.0833333333333
 21
-1
  0
POLYLINE
  8
1
 66
1
  0
VERTEX
  8
1
 10
-50.0833333333333
 20
-1
  0
VERTEX
  8
1
 10
-44.0833333333333
 20
-1
  0
VERTEX
  8
1
 10
-44.0833333333333
 20
-5
  0
VERTEX
  8
1
 10
-50.0833333333333
 20
-5
  0
VERTEX
  8
1
 10
-50.0833333333333
 20
-1
  0
SEQEND
  8
1
  0
POLYLINE
  8
1
 66
1
  0
VERTEX
  8
1
 10
44.9166666666667
 20
-3
  0
VERTEX
  8
1
 10
44.5
 20
-5
  0
VERTEX
  8
1
 10
43.6666666666667
 20
-1
  0
VERTEX
  8
1
 10
42.8333333333334
 20
-5
  0
VERTEX
  8
1
 10
42.0000000000001
 20
-1
  0
VERTEX
  8
1
 10
41.1666666666667
 20
-5
  0
VERTEX
  8
1
 10
40.3333333333334
 20
-1
  0
VERTEX
  8
1
 10
39.9166666666667
 20
-3
  0
SEQEND
  8
1
  0
POLYLINE
  8
1
 66
1
  0
VERTEX
  8
1
 10
-9.08333333333329
 20
-3
  0
VERTEX
  8
1
 10
-9.50000000000002
 20
-5
  0
VERTEX
  8
1
 10
-10.3333333333333
 20
-1
  0
VERTEX
  8
1
 10
-11.1666666666666
 20
-5
  0
VERTEX
  8
1
 10
-11.9999999999999
 20
-1
  0
VERTEX
  8
1
 10
-12.8333333333333
 20
-5
  0
VERTEX
  8
1
 10
-13.6666666666666
 20
-1
  0
VERTEX
  8
1
 10
-14.0833333333333
 20
-3
  0
SEQEND
  8
1
  0
ARC
  8
1
 10
41.6405259598841
 20
6.65602820941377
 40
0.894427190999916
 50
47.6225438058942
 51
201.057492628817
  0
ARC
  8
1
 10
41.5800276420398
 20
6.58613525006233
 40
0.824621125123534
 50
196.339530500047
 51
317.303287032121
  0
LINE
  8
1
 10
42.2166666666667
 20
6.58333333333333
 11
42.2166666666667
 21
6.08333333333333
  0
POLYLINE
  8
1
 66
1
  0
VERTEX
  8
1
 10
41.6166666666667
 20
6.58333333333332
  0
VERTEX
  8
1
 10
42.2166666666667
 20
6.58333333333332
  0
SEQEND
  8
1
  0
LINE
  8
1
 10
44.5666666666667
 20
9.5
 11
45.2666666666667
 21
9.5
  0
LINE
  8
1
 10
43.1166666666667
 20
9.5
 11
44.9166666666667
 21
10.2
  0
LINE
  8
1
 10
42.4166666666667
 20
9.5
 11
43.1166666666667
 21
9.5
  0
POLYLINE
  8
1
 66
1
  0
VERTEX
  8
1
 10
39.9166666666667
 20
11
  0
VERTEX
  8
1
 10
45.9166666666667
 20
11
  0
VERTEX
  8
1
 10
45.9166666666667
 20
5
  0
VERTEX
  8
1
 10
39.9166666666667
 20
5
  0
VERTEX
  8
1
 10
39.9166666666667
 20
11
  0
SEQEND
  8
1
  0
LINE
  8
1
 10
39.9166666666667
 20
11
 11
45.9166666666667
 21
5
  0
LINE
  8
1
 10
39.9166666666667
 20
5
 11
39.9166666666667
 21
3
  0
ARC
  8
1
 10
-12.3594740401159
 20
6.65602820941377
 40
0.894427190999916
 50
47.6225438058942
 51
201.057492628817
  0
ARC
  8
1
 10
-12.4199723579602
 20
6.58613525006233
 40
0.824621125123534
 50
196.339530500047
 51
317.303287032121
  0
LINE
  8
1
 10
-11.7833333333333
 20
6.58333333333333
 11
-11.7833333333333
 21
6.08333333333333
  0
POLYLINE
  8
1
 66
1
  0
VERTEX
  8
1
 10
-12.3833333333333
 20
6.58333333333332
  0
VERTEX
  8
1
 10
-11.7833333333333
 20
6.58333333333332
  0
SEQEND
  8
1
  0
LINE
  8
1
 10
-9.4333333333333
 20
9.5
 11
-8.73333333333329
 21
9.5
  0
LINE
  8
1
 10
-10.8833333333333
 20
9.5
 11
-9.08333333333329
 21
10.2
  0
LINE
  8
1
 10
-11.5833333333333
 20
9.5
 11
-10.8833333333333
 21
9.5
  0
POLYLINE
  8
1
 66
1
  0
VERTEX
  8
1
 10
-14.0833333333333
 20
11
  0
VERTEX
  8
1
 10
-8.08333333333329
 20
11
  0
VERTEX
  8
1
 10
-8.08333333333329
 20
5
  0
VERTEX
  8
1
 10
-14.0833333333333
 20
5
  0
VERTEX
  8
1
 10
-14.0833333333333
 20
11
  0
SEQEND
  8
1
  0
LINE
  8
1
 10
-14.0833333333333
 20
11
 11
-8.08333333333329
 21
5
  0
LINE
  8
1
 10
-14.0833333333333
 20
5
 11
-14.0833333333333
 21
3
  0
LINE
  8
1
 10
9.9166666666667
 20
-1
 11
9.9166666666667
 21
-5
  0
POLYLINE
  8
1
 66
1
  0
VERTEX
  8
1
 10
9.9166666666667
 20
-1
  0
VERTEX
  8
1
 10
15.9166666666667
 20
-1
  0
VERTEX
  8
1
 10
15.9166666666667
 20
-5
  0
VERTEX
  8
1
 10
9.9166666666667
 20
-5
  0
VERTEX
  8
1
 10
9.9166666666667
 20
-1
  0
SEQEND
  8
1
  0
LINE
  8
1
 10
9.9166666666667
 20
-1
 11
13.3807682818045
 21
-3
  0
LINE
  8
1
 10
9.9166666666667
 20
-5
 11
13.3807682818045
 21
-3
  0
LINE
  8
1
 10
-44.0833333333333
 20
-1
 11
-44.0833333333333
 21
-5
  0
POLYLINE
  8
1
 66
1
  0
VERTEX
  8
1
 10
-44.0833333333333
 20
-1
  0
VERTEX
  8
1
 10
-38.0833333333333
 20
-1
  0
VERTEX
  8
1
 10
-38.0833333333333
 20
-5
  0
VERTEX
  8
1
 10
-44.0833333333333
 20
-5
  0
VERTEX
  8
1
 10
-44.0833333333333
 20
-1
  0
SEQEND
  8
1
  0
LINE
  8
1
 10
-44.0833333333333
 20
-1
 11
-40.6192317181955
 21
-3
  0
LINE
  8
1
 10
-44.0833333333333
 20
-5
 11
-40.6192317181955
 21
-3
  0
LINE
  8
1
 10
29.9166666666667
 20
-5
 11
29.9166666666667
 21
3
  0
INSERT
  8
1
  2
LCA1
 10
29.9166666666667
 20
3
 50
90
  0
INSERT
  8
1
  2
LCA1R
 10
29.9166666666667
 20
-5
 50
90
  0
LINE
  8
1
 10
37.9166666666667
 20
-5
 11
37.9166666666667
 21
-3
  0
INSERT
  8
1
  2
LCBP1
 10
37.9166666666667
 20
-3
 50
90
  0
POLYLINE
  8
1
 66
1
  0
VERTEX
  8
1
 10
27.9166666666667
 20
3
  0
VERTEX
  8
1
 10
39.9166666666667
 20
3
  0
VERTEX
  8
1
 10
39.9166666666667
 20
-5
  0
VERTEX
  8
1
 10
27.9166666666667
 20
-5
  0
VERTEX
  8
1
 10
27.9166666666667
 20
3
  0
SEQEND
  8
1
  0
LINE
  8
1
 10
33.9166666666667
 20
-5
 11
37.9166666666667
 21
3
  0
INSERT
  8
1
  2
LCA1
 10
37.9166666666667
 20
3
 50
63.434948822922
  0
LINE
  8
1
 10
-24.0833333333333
 20
-5
 11
-24.0833333333333
 21
3
  0
INSERT
  8
1
  2
LCA1
 10
-24.0833333333333
 20
3
 50
90
  0
INSERT
  8
1
  2
LCA1R
 10
-24.0833333333333
 20
-5
 50
90
  0
LINE
  8
1
 10
-16.0833333333333
 20
-5
 11
-16.0833333333333
 21
-3
  0
INSERT
  8
1
  2
LCBP1
 10
-16.0833333333333
 20
-3
 50
90
  0
POLYLINE
  8
1
 66
1
  0
VERTEX
  8
1
 10
-26.0833333333333
 20
3
  0
VERTEX
  8
1
 10
-14.0833333333333
 20
3
  0
VERTEX
  8
1
 10
-14.0833333333333
 20
-5
  0
VERTEX
  8
1
 10
-26.0833333333333
 20
-5
  0
VERTEX
  8
1
 10
-26.0833333333333
 20
3
  0
SEQEND
  8
1
  0
LINE
  8
1
 10
-20.0833333333333
 20
-5
 11
-16.0833333333333
 21
3
  0
INSERT
  8
1
  2
LCA1
 10
-16.0833333333333
 20
3
 50
63.434948822922
  0
LINE
  8
1
 10
25.9166666666667
 20
-5
 11
25.9166666666667
 21
3
  0
INSERT
  8
1
  2
LCA1
 10
25.9166666666667
 20
3
 50
90
  0
INSERT
  8
1
  2
LCA1R
 10
25.9166666666667
 20
-5
 50
90
  0
LINE
  8
1
 10
17.9166666666667
 20
-5
 11
17.9166666666667
 21
-3
  0
INSERT
  8
1
  2
LCBP1
 10
17.9166666666667
 20
-3
 50
90
  0
POLYLINE
  8
1
 66
1
  0
VERTEX
  8
1
 10
15.9166666666667
 20
3
  0
VERTEX
  8
1
 10
27.9166666666667
 20
3
  0
VERTEX
  8
1
 10
27.9166666666667
 20
-5
  0
VERTEX
  8
1
 10
15.9166666666667
 20
-5
  0
VERTEX
  8
1
 10
15.9166666666667
 20
3
  0
SEQEND
  8
1
  0
LINE
  8
1
 10
21.9166666666667
 20
-5
 11
17.9166666666667
 21
3
  0
INSERT
  8
1
  2
LCA1
 10
17.9166666666667
 20
3
 50
116.565051177078
  0
LINE
  8
1
 10
-28.0833333333333
 20
-5
 11
-28.0833333333333
 21
3
  0
INSERT
  8
1
  2
LCA1
 10
-28.0833333333333
 20
3
 50
90
  0
INSERT
  8
1
  2
LCA1R
 10
-28.0833333333333
 20
-5
 50
90
  0
LINE
  8
1
 10
-36.0833333333333
 20
-5
 11
-36.0833333333333
 21
-3
  0
INSERT
  8
1
  2
LCBP1
 10
-36.0833333333333
 20
-3
 50
90
  0
POLYLINE
  8
1
 66
1
  0
VERTEX
  8
1
 10
-38.0833333333333
 20
3
  0
VERTEX
  8
1
 10
-26.0833333333333
 20
3
  0
VERTEX
  8
1
 10
-26.0833333333333
 20
-5
  0
VERTEX
  8
1
 10
-38.0833333333333
 20
-5
  0
VERTEX
  8
1
 10
-38.0833333333333
 20
3
  0
SEQEND
  8
1
  0
LINE
  8
1
 10
-32.0833333333333
 20
-5
 11
-36.0833333333333
 21
3
  0
INSERT
  8
1
  2
LCA1
 10
-36.0833333333333
 20
3
 50
116.565051177078
  0
CIRCLE
  8
CONNECTIONS
 10
-24.0833333333333
 20
23
 40
0
  0
CIRCLE
  8
CONNECTIONS
 10
37.9166666666667
 20
23
 40
0
  0
CIRCLE
  8
CONNECTIONS
 10
-24.0833333333333
 20
-23
 40
0
  0
CIRCLE
  8
CONNECTIONS
 10
33.8466475262456
 20
-23.2007032293958
 40
0
  0
CIRCLE
  8
CONNECTIONS
 10
-16.0833333333333
 20
-23
 40
0
  0
CIRCLE
  8
CONNECTIONS
 10
54.0833333333334
 20
14.9166666666667
 40
0
  0
CIRCLE
  8
CONNECTIONS
 10
3.9166666666667
 20
-3
 40
0
  0
CIRCLE
  8
CONNECTIONS
 10
-50.0833333333333
 20
-3
 40
0
  0
ENDBLK
  8
0
  0
ENDSEC
  0
SECTION
  2
ENTITIES
  0
INSERT
  8
1
  2
B165935_00995356
 10
54.0833333333333
 20
23
  0
ENDSEC
  0
EOF
