  0
SECTION
  2
HEADER
  9
$LIMMIN
 10
0
 20
0
  9
$LIMMAX
 10
52.5
 20
74.25
  9
$EXTMIN
 10
0
 20
88
  9
$EXTMAX
 10
0
 20
42
  0
ENDSEC
  0
SECTION
  2
TABLES
  0
TABLE
  2
LTYPE
 70
9
  0
LTYPE
  2
CONTINUOUS
 70
64
  3
Solid line
 72
65
 73
0
 40
0
  0
LTYPE
  2
DASHED
 70
64
  3
__ __ __ __ __ __ __ __ __
 72
65
 73
2
 40
0.75
 49
0.5
 49
-0.25
  0
LTYPE
  2
DOT
 70
64
  3
...........................
 72
65
 73
2
 40
0.25
 49
0
 49
-0.25
  0
LTYPE
  2
DASHDOT
 70
64
  3
__ . __ . __ . __ . __ . __ . 
 72
65
 73
4
 40
1
 49
0.5
 49
-0.25
 49
0
 49
-0.25
  0
ENDTAB
  0
TABLE
  2
LAYER
 70
10
  0
LAYER
  2
1
 70
0
 62
7
  6
CONTINUOUS
  0
LAYER
  2
CONNECTIONS
 70
0
 62
-7
  6
CONTINUOUS
  0
ENDTAB
  0
ENDSEC
  0
SECTION
  2
BLOCKS
  0
BLOCK
  8
0
  2
TRICON
 70
0
 10
0
 20
0
  0
POLYLINE
  8
1
 70
1
 66
1
 40
0.5
 41
0.5
  0
VERTEX
  8
1
 10
-0.25
 20
0
 42
1
  0
VERTEX
  8
1
 10
0.25
 20
0
 42
1
  0
SEQEND
  8
1
  0
ENDBLK
  8
0
  0
BLOCK
  8
0
  2
TRICONSMALL
 70
0
 10
0
 20
0
  0
POLYLINE
  8
1
 70
1
 66
1
 40
0.25
 41
0.25
  0
VERTEX
  8
1
 10
-0.125
 20
0
 42
1
  0
VERTEX
  8
1
 10
0.125
 20
0
 42
1
  0
SEQEND
  8
1
  0
ENDBLK
  8
0
  0
BLOCK
  8
0
  2
TRICONCIRCLE
 70
0
 10
0
 20
0
  0
CIRCLE
  8
1
 10
0
 20
0
 40
0.5
  0
ENDBLK
  8
0
  0
BLOCK
  8
0
  2
LCBP0
 70
0
 10
0
 20
0
  0
LINE
  8
1
 10
0
 20
-0.46875
 11
0
 21
0.46875
  0
ENDBLK
  8
0
  0
BLOCK
  8
0
  2
LCBP1
 70
0
 10
0
 20
0
  0
LINE
  8
1
 10
0
 20
-0.625
 11
0
 21
0.625
  0
ENDBLK
  8
0
  0
BLOCK
  8
0
  2
LCBP2
 70
0
 10
0
 20
0
  0
LINE
  8
1
 10
0
 20
-0.9375
 11
0
 21
0.9375
  0
ENDBLK
  8
0
  0
BLOCK
  8
0
  2
LCA1
 70
0
 10
0
 20
0
  0
SOLID
  8
1
 62
7 
 10
0
 20
0
 11
-1.4
 21
-0.275
 12
-1.4
 22
0.275
 13
-1.4
 23
0.275
  0
ENDBLK
  8
0
  0
BLOCK
  8
0
  2
LCA2
 70
0
 10
0
 20
0
  0
SOLID
  8
1
 62
7 
 10
0
 20
0
 11
-1.65
 21
-0.525
 12
-1.65
 22
0.525
 13
-1.65
 23
0.525
  0
ENDBLK
  8
0
  0
BLOCK
  8
0
  2
LCA3
 70
0
 10
0
 20
0
  0
SOLID
  8
1
 62
7 
 10
0
 20
0
 11
-2.15
 21
-1.15
 12
-2.15
 22
1.15
 13
-2.15
 23
1.15
  0
ENDBLK
  8
0
  0
BLOCK
  8
0
  2
LCA1R
 70
0
 10
0
 20
0
  0
SOLID
  8
1
 62
7 
 10
0
 20
0
 11
1.4
 21
-0.275
 12
1.4
 22
0.275
 13
1.4
 23
0.275
  0
ENDBLK
  8
0
  0
BLOCK
  8
0
  2
LCA2R
 70
0
 10
0
 20
0
  0
SOLID
  8
1
 62
7 
 10
0
 20
0
 11
1.65
 21
-0.525
 12
1.65
 22
0.525
 13
1.65
 23
0.525
  0
ENDBLK
  8
0
  0
BLOCK
  8
0
  2
LCA3R
 70
0
 10
0
 20
0
  0
SOLID
  8
1
 62
7 
 10
0
 20
0
 11
2.15
 21
-1.15
 12
2.15
 22
1.15
 13
2.15
 23
1.15
  0
ENDBLK
  8
0
  0
BLOCK
  8
0
  2
B6267_00995344
 70
0
 10
0
 20
0
  0
POLYLINE
  8
1
 66
1
  0
VERTEX
  8
1
 10
-40
 20
19
  0
VERTEX
  8
1
 10
40
 20
19
  0
VERTEX
  8
1
 10
40
 20
-17
  0
VERTEX
  8
1
 10
-40
 20
-17
  0
VERTEX
  8
1
 10
-40
 20
19
  0
SEQEND
  8
1
  0
LINE
  8
1
 10
44
 20
-1
 11
40.0000114631453
 21
-0.993228556285857
  0
TEXT
  8
1
 40
2.475
 41
0.75
  1
2
  7
STANDARD
 73
2
 10
42.1584699453552
 20
1.01639344262298
 11
42.1584699453552
 21
1.01639344262298
  0
LINE
  8
1
 10
-18
 20
-21
 11
-18
 21
-17
  0
TEXT
  8
1
 40
2.475
 41
0.75
  1
3
  7
STANDARD
 73
2
 10
-45.2041491553897
 20
-7.61904761904762
 11
-45.2041491553897
 21
-7.61904761904762
  0
TEXT
  8
1
 40
2.475
 41
0.75
  1
1
  7
STANDARD
 72
2
 10
-41.4655974188913
 20
-0.115549579119291
 11
-41.4655974188913
 21
-0.115549579119291
  0
LINE
  8
1
 10
-44
 20
-1
 11
-40
 21
-1
  0
LINE
  8
1
 10
-40
 20
-5
 11
-44
 21
-5
  0
LINE
  8
1
 10
20
 20
-1
 11
2
 21
-1
  0
LINE
  8
1
 10
16
 20
19
 11
16
 21
-17
  0
LINE
  8
1
 10
-18
 20
-10.624765478424
 11
-18
 21
-17
  0
LINE
  8
1
 10
-8
 20
-1
 11
-6
 21
-1
  0
LINE
  8
1
 10
-40
 20
-1
 11
-36
 21
-1
  0
LINE
  8
1
 10
-36
 20
-5
 11
-40
 21
-5
  0
LINE
  8
1
 10
7
 20
-11
 11
3
 21
-11
  0
POLYLINE
  8
1
 70
1
 66
1
 40
0.5
 41
0.5
  0
VERTEX
  8
1
 10
6.75
 20
-1
 42
1
  0
VERTEX
  8
1
 10
7.25
 20
-1
 42
1
  0
SEQEND
  8
1
  0
LINE
  8
1
 10
7
 20
-1
 11
7
 21
-11
  0
POLYLINE
  8
1
 70
1
 66
1
 40
0.5
 41
0.5
  0
VERTEX
  8
1
 10
-10.25
 20
-1
 42
1
  0
VERTEX
  8
1
 10
-9.75
 20
-1
 42
1
  0
SEQEND
  8
1
  0
LINE
  8
1
 10
-10
 20
-11
 11
-10
 21
-1
  0
LINE
  8
1
 10
-6
 20
-11
 11
-10
 21
-11
  0
LINE
  8
1
 10
16
 20
19
 11
16
 21
21
  0
INSERT
  8
1
  2
LCBP1
 10
16
 20
21
 50
90
  0
LINE
  8
1
 10
16
 20
-17
 11
16
 21
-19
  0
INSERT
  8
1
  2
LCBP1
 10
16
 20
-19
 50
-90
  0
POLYLINE
  8
1
 66
1
  0
VERTEX
  8
1
 10
-2
 20
-13
  0
VERTEX
  8
1
 10
0
 20
-11
  0
VERTEX
  8
1
 10
-2
 20
-9
  0
SEQEND
  8
1
  0
CIRCLE
  8
1
 10
-1.53333333333333
 20
-11
 40
1
  0
LINE
  8
1
 10
-2.5
 20
-11
 11
-6
 21
-11
  0
LINE
  8
1
 10
0
 20
-11
 11
3
 21
-11
  0
POLYLINE
  8
1
 66
1
  0
VERTEX
  8
1
 10
-32.000026973983
 20
13.4999730260169
  0
VERTEX
  8
1
 10
-32.000026973983
 20
14.9999730260169
  0
VERTEX
  8
1
 10
-36.000026973983
 20
14.9999730260169
  0
VERTEX
  8
1
 10
-36.000026973983
 20
13.4999730260169
  0
SEQEND
  8
1
  0
LINE
  8
1
 10
-35.000026973983
 20
8.99997302601696
 11
-35.000026973983
 21
14.999973026017
  0
LINE
  8
1
 10
-33.000026973983
 20
14.999973026017
 11
-33.000026973983
 21
8.99997302601696
  0
POLYLINE
  8
1
 66
1
  0
VERTEX
  8
1
 10
-36.0746347278827
 20
-11.5
  0
VERTEX
  8
1
 10
-36.0746347278827
 20
-13
  0
VERTEX
  8
1
 10
-32.0746347278827
 20
-13
  0
VERTEX
  8
1
 10
-32.0746347278827
 20
-11.5
  0
SEQEND
  8
1
  0
LINE
  8
1
 10
-33.0746347278827
 20
-7.00000000000001
 11
-33.0746347278827
 21
-13
  0
LINE
  8
1
 10
-35.0746347278827
 20
-13
 11
-35.0746347278827
 21
-7.00000000000001
  0
POLYLINE
  8
1
 70
1
 66
1
 40
0.5
 41
0.5
  0
VERTEX
  8
1
 10
15.75
 20
-1
 42
1
  0
VERTEX
  8
1
 10
16.25
 20
-1
 42
1
  0
SEQEND
  8
1
  0
POLYLINE
  8
1
 66
1
  0
VERTEX
  8
1
 10
12
 20
2
  0
VERTEX
  8
1
 10
20
 20
2
  0
VERTEX
  8
1
 10
20
 20
-4
  0
VERTEX
  8
1
 10
12
 20
-4
  0
VERTEX
  8
1
 10
12
 20
2
  0
SEQEND
  8
1
  0
LINE
  8
1
 10
-8.44259788264229
 20
6.32200823416793
 11
0.442873578659833
 21
8.7813571135231
  0
INSERT
  8
1
  2
LCA1
 10
0.442873578659833
 20
8.7813571135231
 50
15.4711922908485
  0
POLYLINE
  8
1
 66
1
  0
VERTEX
  8
1
 10
-3.99988891190038
 20
5.051667663192
  0
VERTEX
  8
1
 10
-1.99988891190038
 20
5.4683343298587
  0
VERTEX
  8
1
 10
-5.99988891190038
 20
6.301667663192
  0
VERTEX
  8
1
 10
-1.99988891190038
 20
7.13500099652535
  0
VERTEX
  8
1
 10
-5.99988891190038
 20
7.9683343298587
  0
VERTEX
  8
1
 10
-1.99988891190038
 20
8.80166766319199
  0
VERTEX
  8
1
 10
-5.99988891190038
 20
9.6350009965253
  0
VERTEX
  8
1
 10
-3.99988891190038
 20
10.051667663192
  0
SEQEND
  8
1
  0
POLYLINE
  8
1
 66
1
  0
VERTEX
  8
1
 10
-6
 20
4.0516445198379
  0
VERTEX
  8
1
 10
-8
 20
3.0516445198379
  0
VERTEX
  8
1
 10
-6
 20
2.0516445198379
  0
SEQEND
  8
1
  0
POLYLINE
  8
1
  6
DOT
 66
1
  0
VERTEX
  8
1
 10
-4
 20
-2.9483554801621
  0
VERTEX
  8
1
 10
-4
 20
-6.9483554801621
  0
VERTEX
  8
1
 10
4
 20
-6.9483554801621
  0
VERTEX
  8
1
 10
4
 20
-2.9483554801621
  0
VERTEX
  8
1
 10
2
 20
-0.9483554801621
  0
SEQEND
  8
1
  0
POLYLINE
  8
1
 66
1
  0
VERTEX
  8
1
 10
-6
 20
-2.9483554801621
  0
VERTEX
  8
1
 10
2
 20
-2.9483554801621
  0
VERTEX
  8
1
 10
2
 20
5.0516445198379
  0
VERTEX
  8
1
 10
-6
 20
5.0516445198379
  0
VERTEX
  8
1
 10
-6
 20
-2.9483554801621
  0
SEQEND
  8
1
  0
LINE
  8
1
 10
2
 20
-0.948355480162102
 11
-6
 21
-0.948355480162102
  0
INSERT
  8
1
  2
LCA1
 10
-6
 20
-0.948355480162102
 50
-180
  0
INSERT
  8
1
  2
LCA1R
 10
2
 20
-0.948355480162102
 50
-180
  0
LINE
  8
1
 10
7
 20
3
 11
7
 21
-1
  0
CIRCLE
  8
1
 10
7
 20
7
 40
4
  0
LINE
  8
1
 10
8.76776695296636
 20
5.23223304703364
 11
5.23223304703363
 21
8.76776695296637
  0
INSERT
  8
1
  2
LCA1
 10
5.23223304703363
 20
8.76776695296637
 50
135
  0
LINE
  8
1
 10
-19.999992566231
 20
-4.65195225181729
 11
-16.000007433769
 21
-4.65195225181729
  0
POLYLINE
  8
1
 66
1
  0
VERTEX
  8
1
 10
-19.999992566231
 20
-4.6519793785534
  0
VERTEX
  8
1
 10
-18.0000196929671
 20
-6.65195225181728
  0
VERTEX
  8
1
 10
-16.000007433769
 20
-4.65193999261925
  0
SEQEND
  8
1
  0
POLYLINE
  8
1
 66
1
  0
VERTEX
  8
1
 10
-18.0000468197032
 20
4.66175624716745
  0
VERTEX
  8
1
 10
-23.6569010691956
 20
-0.995098002324937
  0
VERTEX
  8
1
 10
-18.0000468197032
 20
-6.6519522518173
  0
VERTEX
  8
1
 10
-12.3431925702108
 20
-0.995098002324937
  0
VERTEX
  8
1
 10
-18.0000468197032
 20
4.66175624716745
  0
SEQEND
  8
1
  0
LINE
  8
1
 10
-12.3333801530365
 20
-1.00491041949923
 11
-8.0000468197032
 21
-1.00491041949923
  0
LINE
  8
1
 10
-28.0000468197032
 20
-1.00491041949923
 11
-23.6470886520213
 21
-1.00491041949923
  0
LINE
  8
1
 10
-17.9902344025289
 20
-6.66176466899159
 11
-17.9902344025289
 21
-10.6617646689916
  0
LINE
  8
1
  6
DASHED
 10
-18
 20
-4.65195225181729
 11
-18
 21
4.60490199767508
  0
LINE
  8
1
 10
35.6568542494924
 20
-1.00000000000001
 11
40
 21
-1.00000000000001
  0
POLYLINE
  8
1
 66
1
  0
VERTEX
  8
1
 10
30
 20
4.65685424949235
  0
VERTEX
  8
1
 10
24.3431457505076
 20
-1
  0
VERTEX
  8
1
 10
30
 20
-6.65685424949238
  0
VERTEX
  8
1
 10
35.6568542494924
 20
-1
  0
VERTEX
  8
1
 10
30
 20
4.65685424949235
  0
SEQEND
  8
1
  0
LINE
  8
1
 10
20
 20
-1.00000000000001
 11
24.3431457505076
 21
-1.00000000000001
  0
LINE
  8
1
 10
30
 20
1.34314575050762
 11
30
 21
4.65685424949236
  0
LINE
  8
1
 10
-36
 20
3
 11
-34
 21
3
  0
INSERT
  8
1
  2
LCBP1
 10
-34
 20
3
 50
0
  0
POLYLINE
  8
1
 66
1
  0
VERTEX
  8
1
 10
-28
 20
9
  0
VERTEX
  8
1
 10
-36
 20
9
  0
VERTEX
  8
1
 10
-36
 20
1
  0
VERTEX
  8
1
 10
-28
 20
1
  0
VERTEX
  8
1
 10
-28
 20
9
  0
SEQEND
  8
1
  0
LINE
  8
1
 10
-36
 20
7
 11
-28
 21
7
  0
INSERT
  8
1
  2
LCA1
 10
-28
 20
7
 50
0
  0
INSERT
  8
1
  2
LCA1R
 10
-36
 20
7
 50
0
  0
LINE
  8
1
 10
-36
 20
-1
 11
-34
 21
-1
  0
INSERT
  8
1
  2
LCBP1
 10
-34
 20
-1
 50
0
  0
POLYLINE
  8
1
 66
1
  0
VERTEX
  8
1
 10
-28
 20
1
  0
VERTEX
  8
1
 10
-36
 20
1
  0
VERTEX
  8
1
 10
-36
 20
-7
  0
VERTEX
  8
1
 10
-28
 20
-7
  0
VERTEX
  8
1
 10
-28
 20
1
  0
SEQEND
  8
1
  0
LINE
  8
1
 10
-28
 20
-1
 11
-36
 21
-5
  0
INSERT
  8
1
  2
LCA1
 10
-36
 20
-5
 50
-153.434948822922
  0
INSERT
  8
1
  2
LCA1R
 10
-28
 20
-1
 50
-153.434948822922
  0
CIRCLE
  8
CONNECTIONS
 10
44
 20
-1
 40
0
  0
CIRCLE
  8
CONNECTIONS
 10
-44
 20
-1
 40
0
  0
CIRCLE
  8
CONNECTIONS
 10
-44
 20
-5
 40
0
  0
CIRCLE
  8
CONNECTIONS
 10
-18
 20
-21
 40
0
  0
ENDBLK
  8
0
  0
ENDSEC
  0
SECTION
  2
ENTITIES
  0
INSERT
  8
1
  2
B6267_00995344
 10
44
 20
21
  0
ENDSEC
  0
EOF
