  0
SECTION
  2
HEADER
  9
$LIMMIN
 10
0
 20
0
  9
$LIMMAX
 10
52.5
 20
74.25
  9
$EXTMIN
 10
0
 20
80
  9
$EXTMAX
 10
0
 20
40
  0
ENDSEC
  0
SECTION
  2
TABLES
  0
TABLE
  2
LTYPE
 70
9
  0
LTYPE
  2
CONTINUOUS
 70
64
  3
Solid line
 72
65
 73
0
 40
0
  0
LTYPE
  2
DASHED
 70
64
  3
__ __ __ __ __ __ __ __ __
 72
65
 73
2
 40
0.75
 49
0.5
 49
-0.25
  0
LTYPE
  2
DOT
 70
64
  3
...........................
 72
65
 73
2
 40
0.25
 49
0
 49
-0.25
  0
LTYPE
  2
DASHDOT
 70
64
  3
__ . __ . __ . __ . __ . __ . 
 72
65
 73
4
 40
1
 49
0.5
 49
-0.25
 49
0
 49
-0.25
  0
ENDTAB
  0
TABLE
  2
LAYER
 70
10
  0
LAYER
  2
1
 70
0
 62
7
  6
CONTINUOUS
  0
LAYER
  2
CONNECTIONS
 70
0
 62
-7
  6
CONTINUOUS
  0
ENDTAB
  0
ENDSEC
  0
SECTION
  2
BLOCKS
  0
BLOCK
  8
0
  2
TRICON
 70
0
 10
0
 20
0
  0
POLYLINE
  8
1
 70
1
 66
1
 40
0.5
 41
0.5
  0
VERTEX
  8
1
 10
-0.25
 20
0
 42
1
  0
VERTEX
  8
1
 10
0.25
 20
0
 42
1
  0
SEQEND
  8
1
  0
ENDBLK
  8
0
  0
BLOCK
  8
0
  2
TRICONSMALL
 70
0
 10
0
 20
0
  0
POLYLINE
  8
1
 70
1
 66
1
 40
0.25
 41
0.25
  0
VERTEX
  8
1
 10
-0.125
 20
0
 42
1
  0
VERTEX
  8
1
 10
0.125
 20
0
 42
1
  0
SEQEND
  8
1
  0
ENDBLK
  8
0
  0
BLOCK
  8
0
  2
TRICONCIRCLE
 70
0
 10
0
 20
0
  0
CIRCLE
  8
1
 10
0
 20
0
 40
0.5
  0
ENDBLK
  8
0
  0
BLOCK
  8
0
  2
LCBP0
 70
0
 10
0
 20
0
  0
LINE
  8
1
 10
0
 20
-0.46875
 11
0
 21
0.46875
  0
ENDBLK
  8
0
  0
BLOCK
  8
0
  2
LCBP1
 70
0
 10
0
 20
0
  0
LINE
  8
1
 10
0
 20
-0.625
 11
0
 21
0.625
  0
ENDBLK
  8
0
  0
BLOCK
  8
0
  2
LCBP2
 70
0
 10
0
 20
0
  0
LINE
  8
1
 10
0
 20
-0.9375
 11
0
 21
0.9375
  0
ENDBLK
  8
0
  0
BLOCK
  8
0
  2
LCA1
 70
0
 10
0
 20
0
  0
SOLID
  8
1
 62
7 
 10
0
 20
0
 11
-1.4
 21
-0.275
 12
-1.4
 22
0.275
 13
-1.4
 23
0.275
  0
ENDBLK
  8
0
  0
BLOCK
  8
0
  2
LCA2
 70
0
 10
0
 20
0
  0
SOLID
  8
1
 62
7 
 10
0
 20
0
 11
-1.65
 21
-0.525
 12
-1.65
 22
0.525
 13
-1.65
 23
0.525
  0
ENDBLK
  8
0
  0
BLOCK
  8
0
  2
LCA3
 70
0
 10
0
 20
0
  0
SOLID
  8
1
 62
7 
 10
0
 20
0
 11
-2.15
 21
-1.15
 12
-2.15
 22
1.15
 13
-2.15
 23
1.15
  0
ENDBLK
  8
0
  0
BLOCK
  8
0
  2
LCA1R
 70
0
 10
0
 20
0
  0
SOLID
  8
1
 62
7 
 10
0
 20
0
 11
1.4
 21
-0.275
 12
1.4
 22
0.275
 13
1.4
 23
0.275
  0
ENDBLK
  8
0
  0
BLOCK
  8
0
  2
LCA2R
 70
0
 10
0
 20
0
  0
SOLID
  8
1
 62
7 
 10
0
 20
0
 11
1.65
 21
-0.525
 12
1.65
 22
0.525
 13
1.65
 23
0.525
  0
ENDBLK
  8
0
  0
BLOCK
  8
0
  2
LCA3R
 70
0
 10
0
 20
0
  0
SOLID
  8
1
 62
7 
 10
0
 20
0
 11
2.15
 21
-1.15
 12
2.15
 22
1.15
 13
2.15
 23
1.15
  0
ENDBLK
  8
0
  0
BLOCK
  8
0
  2
B6727_00995336
 70
0
 10
0
 20
0
  0
POLYLINE
  8
1
 66
1
  0
VERTEX
  8
1
 10
-36
 20
16
  0
VERTEX
  8
1
 10
36
 20
16
  0
VERTEX
  8
1
 10
36
 20
-16
  0
VERTEX
  8
1
 10
-36
 20
-16
  0
VERTEX
  8
1
 10
-36
 20
16
  0
SEQEND
  8
1
  0
LINE
  8
1
 10
12
 20
16
 11
12
 21
18
  0
LINE
  8
1
 10
12
 20
-16
 11
12
 21
-18
  0
LINE
  8
1
 10
36
 20
-2
 11
40
 21
-2
  0
TEXT
  8
1
 40
2.475
 41
0.75
  1
2
  7
STANDARD
 73
2
 10
37.1584699453552
 20
1.01639344262298
 11
37.1584699453552
 21
1.01639344262298
  0
TEXT
  8
1
 40
2.475
 41
0.75
  1
1
  7
STANDARD
 72
2
 73
2
 10
-36.4655974188913
 20
1.01918301696022
 11
-36.4655974188913
 21
1.01918301696022
  0
LINE
  8
1
 10
-40
 20
-2
 11
-36
 21
-2
  0
LINE
  8
1
 10
-26
 20
-16
 11
-26
 21
-20
  0
LINE
  8
1
 10
1
 20
-12
 11
-3
 21
-12
  0
POLYLINE
  8
1
 70
1
 66
1
 40
0.5
 41
0.5
  0
VERTEX
  8
1
 10
0.75
 20
-2
 42
1
  0
VERTEX
  8
1
 10
1.25
 20
-2
 42
1
  0
SEQEND
  8
1
  0
LINE
  8
1
 10
1
 20
-2
 11
1
 21
-12
  0
POLYLINE
  8
1
 70
1
 66
1
 40
0.5
 41
0.5
  0
VERTEX
  8
1
 10
-16.25
 20
-2
 42
1
  0
VERTEX
  8
1
 10
-15.75
 20
-2
 42
1
  0
SEQEND
  8
1
  0
LINE
  8
1
 10
-16
 20
-12
 11
-16
 21
-2
  0
LINE
  8
1
 10
-12
 20
-12
 11
-16
 21
-12
  0
LINE
  8
1
 10
12
 20
-16
 11
12
 21
16
  0
LINE
  8
1
 10
-4
 20
-2
 11
20.3495355268654
 21
-2
  0
LINE
  8
1
 10
31.6632440258504
 20
-2
 11
36
 21
-2
  0
LINE
  8
1
 10
-16
 20
-2
 11
-12
 21
-2
  0
LINE
  8
1
 10
1
 20
4
 11
1
 21
-2
  0
POLYLINE
  8
1
 70
1
 66
1
 40
0.5
 41
0.5
  0
VERTEX
  8
1
 10
0.75
 20
-2
 42
1
  0
VERTEX
  8
1
 10
1.25
 20
-2
 42
1
  0
SEQEND
  8
1
  0
POLYLINE
  8
1
 66
1
  0
VERTEX
  8
1
 10
-8
 20
-14
  0
VERTEX
  8
1
 10
-6
 20
-12
  0
VERTEX
  8
1
 10
-8
 20
-10
  0
SEQEND
  8
1
  0
CIRCLE
  8
1
 10
-7.53333333333333
 20
-12
 40
1
  0
LINE
  8
1
 10
-8.5
 20
-12
 11
-12
 21
-12
  0
LINE
  8
1
 10
-6
 20
-12
 11
-3
 21
-12
  0
LINE
  8
1
 10
9
 20
18
 11
9
 21
20
  0
INSERT
  8
1
  2
LCBP1
 10
9
 20
20
 50
90
  0
LINE
  8
1
 10
9
 20
-18
 11
9
 21
-20
  0
INSERT
  8
1
  2
LCBP1
 10
9
 20
-20
 50
-90
  0
LINE
  8
1
 10
23.0063897763578
 20
0.35995740149095
 11
23.0063897763578
 21
3.67366590047569
  0
POLYLINE
  8
1
 66
1
  0
VERTEX
  8
1
 10
23.0063897763578
 20
3.67366590047568
  0
VERTEX
  8
1
 10
17.3495355268655
 20
-1.9831883490167
  0
VERTEX
  8
1
 10
23.0063897763578
 20
-7.64004259850908
  0
VERTEX
  8
1
 10
28.6632440258502
 20
-1.9831883490167
  0
VERTEX
  8
1
 10
23.0063897763578
 20
3.67366590047568
  0
SEQEND
  8
1
  0
LINE
  8
1
 10
-26
 20
-7.67031820552947
 11
-26
 21
-16
  0
LINE
  8
1
 10
-20.3410591568717
 20
-2
 11
-16
 21
-2
  0
LINE
  8
1
 10
-36
 20
-2
 11
-31.6547676558565
 21
-2
  0
POLYLINE
  8
1
 66
1
  0
VERTEX
  8
1
 10
-25.9979134063641
 20
3.64339029345528
  0
VERTEX
  8
1
 10
-31.6547676558565
 20
-2.0134639560371
  0
VERTEX
  8
1
 10
-25.9979134063641
 20
-7.67031820552948
  0
VERTEX
  8
1
 10
-20.3410591568717
 20
-2.0134639560371
  0
VERTEX
  8
1
 10
-25.9979134063641
 20
3.64339029345528
  0
SEQEND
  8
1
  0
LINE
  8
1
  6
DASHED
 10
-25.9978992728613
 20
-5.67031820552947
 11
-25.9978992728613
 21
3.64339029345525
  0
LINE
  8
1
 10
-27.997886279628
 20
-5.67031820552947
 11
-23.997901147166
 21
-5.67031820552947
  0
LINE
  8
1
 10
2.76776695296636
 20
6.23223304703364
 11
-0.767766952966374
 21
9.76776695296637
  0
INSERT
  8
1
  2
LCA1
 10
-0.767766952966374
 20
9.76776695296637
 50
135
  0
CIRCLE
  8
1
 10
1
 20
8
 40
4
  0
POLYLINE
  8
1
 70
1
 66
1
 40
0.5
 41
0.5
  0
VERTEX
  8
1
 10
8.75
 20
-2
 42
1
  0
VERTEX
  8
1
 10
9.25
 20
-2
 42
1
  0
SEQEND
  8
1
  0
POLYLINE
  8
1
 66
1
  0
VERTEX
  8
1
 10
5
 20
1
  0
VERTEX
  8
1
 10
13
 20
1
  0
VERTEX
  8
1
 10
13
 20
-5
  0
VERTEX
  8
1
 10
5
 20
-5
  0
VERTEX
  8
1
 10
5
 20
1
  0
SEQEND
  8
1
  0
LINE
  8
1
 10
-14.4425978826423
 20
5.27036371433004
 11
-5.55712642134017
 21
7.72971259368521
  0
INSERT
  8
1
  2
LCA1
 10
-5.55712642134017
 20
7.72971259368521
 50
15.4711922908485
  0
POLYLINE
  8
1
 66
1
  0
VERTEX
  8
1
 10
-9.99988891190037
 20
4.0000231433541
  0
VERTEX
  8
1
 10
-7.99988891190038
 20
4.4166898100208
  0
VERTEX
  8
1
 10
-11.9998889119004
 20
5.2500231433541
  0
VERTEX
  8
1
 10
-7.99988891190038
 20
6.08335647668745
  0
VERTEX
  8
1
 10
-11.9998889119004
 20
6.91668981002081
  0
VERTEX
  8
1
 10
-7.99988891190038
 20
7.7500231433541
  0
VERTEX
  8
1
 10
-11.9998889119004
 20
8.5833564766874
  0
VERTEX
  8
1
 10
-9.99988891190037
 20
9.0000231433541
  0
SEQEND
  8
1
  0
POLYLINE
  8
1
 66
1
  0
VERTEX
  8
1
 10
-12
 20
3
  0
VERTEX
  8
1
 10
-14
 20
2
  0
VERTEX
  8
1
 10
-12
 20
1
  0
SEQEND
  8
1
  0
POLYLINE
  8
1
  6
DOT
 66
1
  0
VERTEX
  8
1
 10
-10
 20
-4
  0
VERTEX
  8
1
 10
-10
 20
-8
  0
VERTEX
  8
1
 10
-2
 20
-8
  0
VERTEX
  8
1
 10
-2
 20
-4
  0
VERTEX
  8
1
 10
-4
 20
-2
  0
SEQEND
  8
1
  0
POLYLINE
  8
1
 66
1
  0
VERTEX
  8
1
 10
-12
 20
-4
  0
VERTEX
  8
1
 10
-4
 20
-4
  0
VERTEX
  8
1
 10
-4
 20
4
  0
VERTEX
  8
1
 10
-12
 20
4
  0
VERTEX
  8
1
 10
-12
 20
-4
  0
SEQEND
  8
1
  0
LINE
  8
1
 10
-4
 20
-2
 11
-12
 21
-2
  0
INSERT
  8
1
  2
LCA1
 10
-12
 20
-2
 50
-180
  0
INSERT
  8
1
  2
LCA1R
 10
-4
 20
-2
 50
-180
  0
CIRCLE
  8
CONNECTIONS
 10
12
 20
-18
 40
0
  0
CIRCLE
  8
CONNECTIONS
 10
12
 20
18
 40
0
  0
CIRCLE
  8
CONNECTIONS
 10
-40
 20
-2
 40
0
  0
CIRCLE
  8
CONNECTIONS
 10
40
 20
-2
 40
0
  0
ENDBLK
  8
0
  0
ENDSEC
  0
SECTION
  2
ENTITIES
  0
INSERT
  8
1
  2
B6727_00995336
 10
40
 20
20
  0
ENDSEC
  0
EOF
