  0
SECTION
  2
HEADER
  9
$LIMMIN
 10
0
 20
0
  9
$LIMMAX
 10
52.5
 20
74.25
  9
$EXTMIN
 10
0
 20
126
  9
$EXTMAX
 10
0
 20
36
  0
ENDSEC
  0
SECTION
  2
TABLES
  0
TABLE
  2
LTYPE
 70
9
  0
LTYPE
  2
CONTINUOUS
 70
64
  3
Solid line
 72
65
 73
0
 40
0
  0
LTYPE
  2
DASHED
 70
64
  3
__ __ __ __ __ __ __ __ __
 72
65
 73
2
 40
0.75
 49
0.5
 49
-0.25
  0
LTYPE
  2
DOT
 70
64
  3
...........................
 72
65
 73
2
 40
0.25
 49
0
 49
-0.25
  0
LTYPE
  2
DASHDOT
 70
64
  3
__ . __ . __ . __ . __ . __ . 
 72
65
 73
4
 40
1
 49
0.5
 49
-0.25
 49
0
 49
-0.25
  0
ENDTAB
  0
TABLE
  2
LAYER
 70
10
  0
LAYER
  2
1
 70
0
 62
7
  6
CONTINUOUS
  0
LAYER
  2
CONNECTIONS
 70
0
 62
-7
  6
CONTINUOUS
  0
ENDTAB
  0
ENDSEC
  0
SECTION
  2
BLOCKS
  0
BLOCK
  8
0
  2
TRICON
 70
0
 10
0
 20
0
  0
POLYLINE
  8
1
 70
1
 66
1
 40
0.5
 41
0.5
  0
VERTEX
  8
1
 10
-0.25
 20
0
 42
1
  0
VERTEX
  8
1
 10
0.25
 20
0
 42
1
  0
SEQEND
  8
1
  0
ENDBLK
  8
0
  0
BLOCK
  8
0
  2
TRICONSMALL
 70
0
 10
0
 20
0
  0
POLYLINE
  8
1
 70
1
 66
1
 40
0.25
 41
0.25
  0
VERTEX
  8
1
 10
-0.125
 20
0
 42
1
  0
VERTEX
  8
1
 10
0.125
 20
0
 42
1
  0
SEQEND
  8
1
  0
ENDBLK
  8
0
  0
BLOCK
  8
0
  2
TRICONCIRCLE
 70
0
 10
0
 20
0
  0
CIRCLE
  8
1
 10
0
 20
0
 40
0.5
  0
ENDBLK
  8
0
  0
BLOCK
  8
0
  2
LCBP0
 70
0
 10
0
 20
0
  0
LINE
  8
1
 10
0
 20
-0.46875
 11
0
 21
0.46875
  0
ENDBLK
  8
0
  0
BLOCK
  8
0
  2
LCBP1
 70
0
 10
0
 20
0
  0
LINE
  8
1
 10
0
 20
-0.625
 11
0
 21
0.625
  0
ENDBLK
  8
0
  0
BLOCK
  8
0
  2
LCBP2
 70
0
 10
0
 20
0
  0
LINE
  8
1
 10
0
 20
-0.9375
 11
0
 21
0.9375
  0
ENDBLK
  8
0
  0
BLOCK
  8
0
  2
LCA1
 70
0
 10
0
 20
0
  0
SOLID
  8
1
 62
7 
 10
0
 20
0
 11
-1.4
 21
-0.275
 12
-1.4
 22
0.275
 13
-1.4
 23
0.275
  0
ENDBLK
  8
0
  0
BLOCK
  8
0
  2
LCA2
 70
0
 10
0
 20
0
  0
SOLID
  8
1
 62
7 
 10
0
 20
0
 11
-1.65
 21
-0.525
 12
-1.65
 22
0.525
 13
-1.65
 23
0.525
  0
ENDBLK
  8
0
  0
BLOCK
  8
0
  2
LCA3
 70
0
 10
0
 20
0
  0
SOLID
  8
1
 62
7 
 10
0
 20
0
 11
-2.15
 21
-1.15
 12
-2.15
 22
1.15
 13
-2.15
 23
1.15
  0
ENDBLK
  8
0
  0
BLOCK
  8
0
  2
LCA1R
 70
0
 10
0
 20
0
  0
SOLID
  8
1
 62
7 
 10
0
 20
0
 11
1.4
 21
-0.275
 12
1.4
 22
0.275
 13
1.4
 23
0.275
  0
ENDBLK
  8
0
  0
BLOCK
  8
0
  2
LCA2R
 70
0
 10
0
 20
0
  0
SOLID
  8
1
 62
7 
 10
0
 20
0
 11
1.65
 21
-0.525
 12
1.65
 22
0.525
 13
1.65
 23
0.525
  0
ENDBLK
  8
0
  0
BLOCK
  8
0
  2
LCA3R
 70
0
 10
0
 20
0
  0
SOLID
  8
1
 62
7 
 10
0
 20
0
 11
2.15
 21
-1.15
 12
2.15
 22
1.15
 13
2.15
 23
1.15
  0
ENDBLK
  8
0
  0
BLOCK
  8
0
  2
B12153_00995334
 70
0
 10
0
 20
0
  0
POLYLINE
  8
1
 66
1
  0
VERTEX
  8
1
 10
-59
 20
14
  0
VERTEX
  8
1
 10
59
 20
14
  0
VERTEX
  8
1
 10
59
 20
-18
  0
VERTEX
  8
1
 10
-59
 20
-18
  0
VERTEX
  8
1
 10
-59
 20
14
  0
SEQEND
  8
1
  0
TEXT
  8
1
 40
2.475
 41
0.75
  1
2
  7
STANDARD
 72
2
 73
2
 10
49.3652210235596
 20
17
 11
49.3652210235596
 21
17
  0
TEXT
  8
1
 40
2.475
 41
0.75
  1
2
  7
STANDARD
 72
2
 73
2
 10
27.3652210235596
 20
17
 11
27.3652210235596
 21
17
  0
TEXT
  8
1
 40
2.475
 41
0.75
  1
2
  7
STANDARD
 72
2
 73
2
 10
5.36522102355957
 20
17
 11
5.36522102355957
 21
17
  0
TEXT
  8
1
 40
2.475
 41
0.75
  1
2
  7
STANDARD
 72
2
 73
2
 10
-16.6347789764404
 20
17
 11
-16.6347789764404
 21
17
  0
TEXT
  8
1
 40
2.475
 41
0.75
  1
2
  7
STANDARD
 72
2
 73
2
 10
-37.6347789764404
 20
17
 11
-37.6347789764404
 21
17
  0
TEXT
  8
1
 40
2.475
 41
0.75
  1
1
  7
STANDARD
 73
2
 10
61
 20
-4
 11
61
 21
-4
  0
TEXT
  8
1
 40
2.475
 41
0.75
  1
1
  7
STANDARD
 72
2
 73
2
 10
-61
 20
-4
 11
-61
 21
-4
  0
LINE
  8
1
 10
-59
 20
0
 11
-63
 21
0
  0
LINE
  8
1
 10
59
 20
0
 11
63
 21
0
  0
LINE
  8
1
 10
51
 20
14
 11
51
 21
18
  0
LINE
  8
1
 10
29
 20
14
 11
29
 21
18
  0
LINE
  8
1
 10
7
 20
14
 11
7
 21
18
  0
LINE
  8
1
 10
-15
 20
14
 11
-15
 21
18
  0
LINE
  8
1
 10
-37
 20
14
 11
-37
 21
18
  0
LINE
  8
1
 10
51
 20
14
 11
51
 21
0
  0
LINE
  8
1
 10
29
 20
14
 11
29
 21
0
  0
LINE
  8
1
 10
7
 20
14
 11
7
 21
0
  0
LINE
  8
1
 10
-15
 20
14
 11
-15
 21
0
  0
LINE
  8
1
 10
51
 20
0
 11
47
 21
0
  0
LINE
  8
1
 10
33
 20
0
 11
39
 21
0
  0
LINE
  8
1
 10
29
 20
0
 11
25
 21
0
  0
LINE
  8
1
 10
11
 20
0
 11
17
 21
0
  0
LINE
  8
1
 10
7
 20
0
 11
3
 21
0
  0
LINE
  8
1
 10
-11
 20
0
 11
-5
 21
0
  0
LINE
  8
1
 10
-15
 20
0
 11
-19
 21
0
  0
LINE
  8
1
 10
-33
 20
0
 11
-27
 21
0
  0
LINE
  8
1
 10
-37
 20
0
 11
-41
 21
0
  0
LINE
  8
1
 10
-37
 20
0
 11
-37
 21
14
  0
LINE
  8
1
 10
-55
 20
0
 11
-49
 21
0
  0
LINE
  8
1
 10
55
 20
0
 11
59
 21
0
  0
LINE
  8
1
 10
-59
 20
0
 11
-55
 21
0
  0
POLYLINE
  8
1
 70
1
 66
1
 40
0.5
 41
0.5
  0
VERTEX
  8
1
 10
32.75
 20
-14
 42
1
  0
VERTEX
  8
1
 10
33.25
 20
-14
 42
1
  0
SEQEND
  8
1
  0
LINE
  8
1
 10
-55
 20
-14
 11
55
 21
-14
  0
LINE
  8
1
 10
55
 20
0
 11
55
 21
-14
  0
LINE
  8
1
 10
33
 20
0
 11
33
 21
-14
  0
POLYLINE
  8
1
 70
1
 66
1
 40
0.5
 41
0.5
  0
VERTEX
  8
1
 10
10.75
 20
-14
 42
1
  0
VERTEX
  8
1
 10
11.25
 20
-14
 42
1
  0
SEQEND
  8
1
  0
POLYLINE
  8
1
 70
1
 66
1
 40
0.5
 41
0.5
  0
VERTEX
  8
1
 10
-11.25
 20
-14
 42
1
  0
VERTEX
  8
1
 10
-10.75
 20
-14
 42
1
  0
SEQEND
  8
1
  0
LINE
  8
1
 10
-11
 20
0
 11
-11
 21
-14
  0
LINE
  8
1
 10
11
 20
0
 11
11
 21
-14
  0
LINE
  8
1
 10
-33
 20
0
 11
-33
 21
-14
  0
LINE
  8
1
 10
-55
 20
0
 11
-55
 21
-14
  0
POLYLINE
  8
1
 70
1
 66
1
 40
0.5
 41
0.5
  0
VERTEX
  8
1
 10
-33.25
 20
-14
 42
1
  0
VERTEX
  8
1
 10
-32.75
 20
-14
 42
1
  0
SEQEND
  8
1
  0
POLYLINE
  8
1
 70
1
 66
1
 40
0.5
 41
0.5
  0
VERTEX
  8
1
 10
-55.25
 20
0
 42
1
  0
VERTEX
  8
1
 10
-54.75
 20
0
 42
1
  0
SEQEND
  8
1
  0
LINE
  8
1
 10
36.5550660170445
 20
7.27829222480391
 11
45.4449331506217
 21
9.72170425459834
  0
INSERT
  8
1
  2
LCA1
 10
45.4449331506217
 20
9.72170425459834
 50
15.3684528725217
  0
POLYLINE
  8
1
 66
1
  0
VERTEX
  8
1
 10
41
 20
6
  0
VERTEX
  8
1
 10
43
 20
6.4166666666667
  0
VERTEX
  8
1
 10
39
 20
7.25
  0
VERTEX
  8
1
 10
43
 20
8.08333333333337
  0
VERTEX
  8
1
 10
39
 20
8.9166666666667
  0
VERTEX
  8
1
 10
43
 20
9.75
  0
VERTEX
  8
1
 10
39
 20
10.5833333333333
  0
VERTEX
  8
1
 10
41
 20
11
  0
SEQEND
  8
1
  0
POLYLINE
  8
1
 66
1
  0
VERTEX
  8
1
 10
39
 20
5
  0
VERTEX
  8
1
 10
37
 20
4
  0
VERTEX
  8
1
 10
39
 20
3
  0
SEQEND
  8
1
  0
POLYLINE
  8
1
  6
DOT
 66
1
  0
VERTEX
  8
1
 10
41
 20
-2
  0
VERTEX
  8
1
 10
41
 20
-6
  0
VERTEX
  8
1
 10
49
 20
-6
  0
VERTEX
  8
1
 10
49
 20
-2
  0
VERTEX
  8
1
 10
47
 20
0
  0
SEQEND
  8
1
  0
POLYLINE
  8
1
 66
1
  0
VERTEX
  8
1
 10
39
 20
-2
  0
VERTEX
  8
1
 10
47
 20
-2
  0
VERTEX
  8
1
 10
47
 20
6
  0
VERTEX
  8
1
 10
39
 20
6
  0
VERTEX
  8
1
 10
39
 20
-2
  0
SEQEND
  8
1
  0
LINE
  8
1
 10
47
 20
0
 11
39
 21
0
  0
INSERT
  8
1
  2
LCA1
 10
39
 20
0
 50
-180
  0
INSERT
  8
1
  2
LCA1R
 10
47
 20
0
 50
-180
  0
LINE
  8
1
 10
14.5550660170445
 20
7.27829222480391
 11
23.4449331506217
 21
9.72170425459834
  0
INSERT
  8
1
  2
LCA1
 10
23.4449331506217
 20
9.72170425459834
 50
15.3684528725217
  0
POLYLINE
  8
1
 66
1
  0
VERTEX
  8
1
 10
19
 20
6
  0
VERTEX
  8
1
 10
21
 20
6.4166666666667
  0
VERTEX
  8
1
 10
17
 20
7.25
  0
VERTEX
  8
1
 10
21
 20
8.08333333333337
  0
VERTEX
  8
1
 10
17
 20
8.9166666666667
  0
VERTEX
  8
1
 10
21
 20
9.75
  0
VERTEX
  8
1
 10
17
 20
10.5833333333333
  0
VERTEX
  8
1
 10
19
 20
11
  0
SEQEND
  8
1
  0
POLYLINE
  8
1
 66
1
  0
VERTEX
  8
1
 10
17
 20
5
  0
VERTEX
  8
1
 10
15
 20
4
  0
VERTEX
  8
1
 10
17
 20
3
  0
SEQEND
  8
1
  0
POLYLINE
  8
1
  6
DOT
 66
1
  0
VERTEX
  8
1
 10
19
 20
-2
  0
VERTEX
  8
1
 10
19
 20
-6
  0
VERTEX
  8
1
 10
27
 20
-6
  0
VERTEX
  8
1
 10
27
 20
-2
  0
VERTEX
  8
1
 10
25
 20
0
  0
SEQEND
  8
1
  0
POLYLINE
  8
1
 66
1
  0
VERTEX
  8
1
 10
17
 20
-2
  0
VERTEX
  8
1
 10
25
 20
-2
  0
VERTEX
  8
1
 10
25
 20
6
  0
VERTEX
  8
1
 10
17
 20
6
  0
VERTEX
  8
1
 10
17
 20
-2
  0
SEQEND
  8
1
  0
LINE
  8
1
 10
25
 20
0
 11
17
 21
0
  0
INSERT
  8
1
  2
LCA1
 10
17
 20
0
 50
-180
  0
INSERT
  8
1
  2
LCA1R
 10
25
 20
0
 50
-180
  0
LINE
  8
1
 10
-7.44493398295548
 20
7.27829222480391
 11
1.44493315062171
 21
9.72170425459834
  0
INSERT
  8
1
  2
LCA1
 10
1.44493315062171
 20
9.72170425459834
 50
15.3684528725217
  0
POLYLINE
  8
1
 66
1
  0
VERTEX
  8
1
 10
-3
 20
6
  0
VERTEX
  8
1
 10
-1
 20
6.4166666666667
  0
VERTEX
  8
1
 10
-5
 20
7.25
  0
VERTEX
  8
1
 10
-1
 20
8.08333333333337
  0
VERTEX
  8
1
 10
-5
 20
8.9166666666667
  0
VERTEX
  8
1
 10
-1
 20
9.75
  0
VERTEX
  8
1
 10
-5
 20
10.5833333333333
  0
VERTEX
  8
1
 10
-3
 20
11
  0
SEQEND
  8
1
  0
POLYLINE
  8
1
 66
1
  0
VERTEX
  8
1
 10
-5
 20
5
  0
VERTEX
  8
1
 10
-7
 20
4
  0
VERTEX
  8
1
 10
-5
 20
3
  0
SEQEND
  8
1
  0
POLYLINE
  8
1
  6
DOT
 66
1
  0
VERTEX
  8
1
 10
-3
 20
-2
  0
VERTEX
  8
1
 10
-3
 20
-6
  0
VERTEX
  8
1
 10
5
 20
-6
  0
VERTEX
  8
1
 10
5
 20
-2
  0
VERTEX
  8
1
 10
3
 20
0
  0
SEQEND
  8
1
  0
POLYLINE
  8
1
 66
1
  0
VERTEX
  8
1
 10
-5
 20
-2
  0
VERTEX
  8
1
 10
3
 20
-2
  0
VERTEX
  8
1
 10
3
 20
6
  0
VERTEX
  8
1
 10
-5
 20
6
  0
VERTEX
  8
1
 10
-5
 20
-2
  0
SEQEND
  8
1
  0
LINE
  8
1
 10
3
 20
0
 11
-5
 21
0
  0
INSERT
  8
1
  2
LCA1
 10
-5
 20
0
 50
-180
  0
INSERT
  8
1
  2
LCA1R
 10
3
 20
0
 50
-180
  0
LINE
  8
1
 10
-29.4449339829555
 20
7.27829222480391
 11
-20.5550668493783
 21
9.72170425459834
  0
INSERT
  8
1
  2
LCA1
 10
-20.5550668493783
 20
9.72170425459834
 50
15.3684528725217
  0
POLYLINE
  8
1
 66
1
  0
VERTEX
  8
1
 10
-25
 20
6
  0
VERTEX
  8
1
 10
-23
 20
6.4166666666667
  0
VERTEX
  8
1
 10
-27
 20
7.25
  0
VERTEX
  8
1
 10
-23
 20
8.08333333333337
  0
VERTEX
  8
1
 10
-27
 20
8.9166666666667
  0
VERTEX
  8
1
 10
-23
 20
9.75
  0
VERTEX
  8
1
 10
-27
 20
10.5833333333333
  0
VERTEX
  8
1
 10
-25
 20
11
  0
SEQEND
  8
1
  0
POLYLINE
  8
1
 66
1
  0
VERTEX
  8
1
 10
-27
 20
5
  0
VERTEX
  8
1
 10
-29
 20
4
  0
VERTEX
  8
1
 10
-27
 20
3
  0
SEQEND
  8
1
  0
POLYLINE
  8
1
  6
DOT
 66
1
  0
VERTEX
  8
1
 10
-25
 20
-2
  0
VERTEX
  8
1
 10
-25
 20
-6
  0
VERTEX
  8
1
 10
-17
 20
-6
  0
VERTEX
  8
1
 10
-17
 20
-2
  0
VERTEX
  8
1
 10
-19
 20
0
  0
SEQEND
  8
1
  0
POLYLINE
  8
1
 66
1
  0
VERTEX
  8
1
 10
-27
 20
-2
  0
VERTEX
  8
1
 10
-19
 20
-2
  0
VERTEX
  8
1
 10
-19
 20
6
  0
VERTEX
  8
1
 10
-27
 20
6
  0
VERTEX
  8
1
 10
-27
 20
-2
  0
SEQEND
  8
1
  0
LINE
  8
1
 10
-19
 20
0
 11
-27
 21
0
  0
INSERT
  8
1
  2
LCA1
 10
-27
 20
0
 50
-180
  0
INSERT
  8
1
  2
LCA1R
 10
-19
 20
0
 50
-180
  0
LINE
  8
1
 10
-51.4449339829555
 20
7.27829222480391
 11
-42.5550668493783
 21
9.72170425459834
  0
INSERT
  8
1
  2
LCA1
 10
-42.5550668493783
 20
9.72170425459834
 50
15.3684528725217
  0
POLYLINE
  8
1
 66
1
  0
VERTEX
  8
1
 10
-47
 20
6
  0
VERTEX
  8
1
 10
-45
 20
6.4166666666667
  0
VERTEX
  8
1
 10
-49
 20
7.25
  0
VERTEX
  8
1
 10
-45
 20
8.08333333333337
  0
VERTEX
  8
1
 10
-49
 20
8.9166666666667
  0
VERTEX
  8
1
 10
-45
 20
9.75
  0
VERTEX
  8
1
 10
-49
 20
10.5833333333333
  0
VERTEX
  8
1
 10
-47
 20
11
  0
SEQEND
  8
1
  0
POLYLINE
  8
1
 66
1
  0
VERTEX
  8
1
 10
-49
 20
5
  0
VERTEX
  8
1
 10
-51
 20
4
  0
VERTEX
  8
1
 10
-49
 20
3
  0
SEQEND
  8
1
  0
POLYLINE
  8
1
  6
DOT
 66
1
  0
VERTEX
  8
1
 10
-47
 20
-2
  0
VERTEX
  8
1
 10
-47
 20
-6
  0
VERTEX
  8
1
 10
-39
 20
-6
  0
VERTEX
  8
1
 10
-39
 20
-2
  0
VERTEX
  8
1
 10
-41
 20
0
  0
SEQEND
  8
1
  0
POLYLINE
  8
1
 66
1
  0
VERTEX
  8
1
 10
-49
 20
-2
  0
VERTEX
  8
1
 10
-41
 20
-2
  0
VERTEX
  8
1
 10
-41
 20
6
  0
VERTEX
  8
1
 10
-49
 20
6
  0
VERTEX
  8
1
 10
-49
 20
-2
  0
SEQEND
  8
1
  0
LINE
  8
1
 10
-41
 20
0
 11
-49
 21
0
  0
INSERT
  8
1
  2
LCA1
 10
-49
 20
0
 50
-180
  0
INSERT
  8
1
  2
LCA1R
 10
-41
 20
0
 50
-180
  0
CIRCLE
  8
CONNECTIONS
 10
-63
 20
0
 40
0
  0
CIRCLE
  8
CONNECTIONS
 10
-37
 20
18
 40
0
  0
CIRCLE
  8
CONNECTIONS
 10
-15
 20
18
 40
0
  0
CIRCLE
  8
CONNECTIONS
 10
7
 20
18
 40
0
  0
CIRCLE
  8
CONNECTIONS
 10
29
 20
18
 40
0
  0
CIRCLE
  8
CONNECTIONS
 10
51
 20
18
 40
0
  0
CIRCLE
  8
CONNECTIONS
 10
63
 20
0
 40
0
  0
ENDBLK
  8
0
  0
ENDSEC
  0
SECTION
  2
ENTITIES
  0
INSERT
  8
1
  2
B12153_00995334
 10
63
 20
18
  0
ENDSEC
  0
EOF
