  0
SECTION
  2
HEADER
  9
$LIMMIN
 10
0
 20
0
  9
$LIMMAX
 10
52.5
 20
74.25
  9
$EXTMIN
 10
0
 20
52.9323431650798
  9
$EXTMAX
 10
0
 20
28
  0
ENDSEC
  0
SECTION
  2
TABLES
  0
TABLE
  2
LTYPE
 70
9
  0
LTYPE
  2
CONTINUOUS
 70
64
  3
Solid line
 72
65
 73
0
 40
0
  0
LTYPE
  2
DASHED
 70
64
  3
__ __ __ __ __ __ __ __ __
 72
65
 73
2
 40
0.75
 49
0.5
 49
-0.25
  0
LTYPE
  2
DOT
 70
64
  3
...........................
 72
65
 73
2
 40
0.25
 49
0
 49
-0.25
  0
LTYPE
  2
DASHDOT
 70
64
  3
__ . __ . __ . __ . __ . __ . 
 72
65
 73
4
 40
1
 49
0.5
 49
-0.25
 49
0
 49
-0.25
  0
ENDTAB
  0
TABLE
  2
LAYER
 70
10
  0
LAYER
  2
1
 70
0
 62
7
  6
CONTINUOUS
  0
LAYER
  2
CONNECTIONS
 70
0
 62
-7
  6
CONTINUOUS
  0
ENDTAB
  0
ENDSEC
  0
SECTION
  2
BLOCKS
  0
BLOCK
  8
0
  2
TRICON
 70
0
 10
0
 20
0
  0
POLYLINE
  8
1
 70
1
 66
1
 40
0.5
 41
0.5
  0
VERTEX
  8
1
 10
-0.25
 20
0
 42
1
  0
VERTEX
  8
1
 10
0.25
 20
0
 42
1
  0
SEQEND
  8
1
  0
ENDBLK
  8
0
  0
BLOCK
  8
0
  2
TRICONSMALL
 70
0
 10
0
 20
0
  0
POLYLINE
  8
1
 70
1
 66
1
 40
0.25
 41
0.25
  0
VERTEX
  8
1
 10
-0.125
 20
0
 42
1
  0
VERTEX
  8
1
 10
0.125
 20
0
 42
1
  0
SEQEND
  8
1
  0
ENDBLK
  8
0
  0
BLOCK
  8
0
  2
TRICONCIRCLE
 70
0
 10
0
 20
0
  0
CIRCLE
  8
1
 10
0
 20
0
 40
0.5
  0
ENDBLK
  8
0
  0
BLOCK
  8
0
  2
LCBP0
 70
0
 10
0
 20
0
  0
LINE
  8
1
 10
0
 20
-0.46875
 11
0
 21
0.46875
  0
ENDBLK
  8
0
  0
BLOCK
  8
0
  2
LCBP1
 70
0
 10
0
 20
0
  0
LINE
  8
1
 10
0
 20
-0.625
 11
0
 21
0.625
  0
ENDBLK
  8
0
  0
BLOCK
  8
0
  2
LCBP2
 70
0
 10
0
 20
0
  0
LINE
  8
1
 10
0
 20
-0.9375
 11
0
 21
0.9375
  0
ENDBLK
  8
0
  0
BLOCK
  8
0
  2
LCA1
 70
0
 10
0
 20
0
  0
SOLID
  8
1
 62
7 
 10
0
 20
0
 11
-1.4
 21
-0.275
 12
-1.4
 22
0.275
 13
-1.4
 23
0.275
  0
ENDBLK
  8
0
  0
BLOCK
  8
0
  2
LCA2
 70
0
 10
0
 20
0
  0
SOLID
  8
1
 62
7 
 10
0
 20
0
 11
-1.65
 21
-0.525
 12
-1.65
 22
0.525
 13
-1.65
 23
0.525
  0
ENDBLK
  8
0
  0
BLOCK
  8
0
  2
LCA3
 70
0
 10
0
 20
0
  0
SOLID
  8
1
 62
7 
 10
0
 20
0
 11
-2.15
 21
-1.15
 12
-2.15
 22
1.15
 13
-2.15
 23
1.15
  0
ENDBLK
  8
0
  0
BLOCK
  8
0
  2
LCA1R
 70
0
 10
0
 20
0
  0
SOLID
  8
1
 62
7 
 10
0
 20
0
 11
1.4
 21
-0.275
 12
1.4
 22
0.275
 13
1.4
 23
0.275
  0
ENDBLK
  8
0
  0
BLOCK
  8
0
  2
LCA2R
 70
0
 10
0
 20
0
  0
SOLID
  8
1
 62
7 
 10
0
 20
0
 11
1.65
 21
-0.525
 12
1.65
 22
0.525
 13
1.65
 23
0.525
  0
ENDBLK
  8
0
  0
BLOCK
  8
0
  2
LCA3R
 70
0
 10
0
 20
0
  0
SOLID
  8
1
 62
7 
 10
0
 20
0
 11
2.15
 21
-1.15
 12
2.15
 22
1.15
 13
2.15
 23
1.15
  0
ENDBLK
  8
0
  0
BLOCK
  8
0
  2
B24249_00995259
 70
0
 10
0
 20
0
  0
POLYLINE
  8
1
 66
1
  0
VERTEX
  8
1
 10
-22.4661715825399
 20
10
  0
VERTEX
  8
1
 10
19.5338284174601
 20
10
  0
VERTEX
  8
1
 10
19.5338284174601
 20
-10
  0
VERTEX
  8
1
 10
-22.4661715825399
 20
-10
  0
VERTEX
  8
1
 10
-22.4661715825399
 20
10
  0
SEQEND
  8
1
  0
TEXT
  8
1
 40
2.925
 41
0.75
  1
11
  7
STANDARD
 10
16.5338284174601
 20
-15.5375
  0
LINE
  8
1
 10
15.5338284174601
 20
-10
 11
15.5338284174601
 21
-14
  0
TEXT
  8
1
 40
2.925
 41
0.75
  1
11
  7
STANDARD
 10
16.5338284174601
 20
12.4625
  0
LINE
  8
1
 10
15.5338284174601
 20
10
 11
15.5338284174601
 21
14
  0
TEXT
  8
1
 40
2.925
 41
0.75
  1
1
  7
STANDARD
 73
2
 10
21.5338284174601
 20
-3.19645245869954
 11
21.5338284174601
 21
-3.19645245869954
  0
LINE
  8
1
 10
19.5338284174601
 20
-6
 11
23.5338284174601
 21
-6
  0
TEXT
  8
1
 40
2.4749997138977
 41
0.75
  1
22
  7
STANDARD
 10
0.533828417460124
 20
11.2374998569489
  0
LINE
  8
1
 10
-0.466171582539876
 20
10
 11
-0.466171582539876
 21
14
  0
TEXT
  8
1
 40
2.925
 41
0.75
  1
10
  7
STANDARD
 72
2
 73
2
 10
-26.9661715825399
 20
0
 11
-26.9661715825399
 21
0
  0
LINE
  8
1
 10
-22.4661715825399
 20
0
 11
-26.4661715825399
 21
0
  0
TEXT
  8
1
 40
2.925
 41
0.75
  1
1
  7
STANDARD
 72
2
 73
2
 10
-26.4661715825399
 20
-6
 11
-26.4661715825399
 21
-6
  0
LINE
  8
1
 10
-22.4661715825399
 20
-6
 11
-26.4661715825399
 21
-6
  0
TEXT
  8
1
 40
2.475
 41
0.75
  1
(2)
  7
STANDARD
 72
2
 73
2
 10
26.4661715825399
 20
1.5
 11
26.4661715825399
 21
1.5
  0
POLYLINE
  8
1
 70
1
 66
1
 40
0.5
 41
0.5
  0
VERTEX
  8
1
 10
15.2838284174601
 20
-6
 42
1
  0
VERTEX
  8
1
 10
15.7838284174601
 20
-6
 42
1
  0
SEQEND
  8
1
  0
LINE
  8
1
 10
17.5338284174601
 20
-6
 11
19.5338284174601
 21
-6
  0
LINE
  8
1
 10
15.5338284174601
 20
10
 11
15.5338284174601
 21
-10
  0
LINE
  8
1
 10
-0.466171582539876
 20
-6
 11
-0.466171582539876
 21
-2
  0
LINE
  8
1
 10
13.5338284174601
 20
-6
 11
13.5338284174601
 21
0
  0
LINE
  8
1
 10
-22.4661715825399
 20
-6
 11
17.5338284174601
 21
-6
  0
POLYLINE
  8
1
 70
1
 66
1
 40
0.5
 41
0.5
  0
VERTEX
  8
1
 10
-0.716171582539876
 20
-6
 42
1
  0
VERTEX
  8
1
 10
-0.216171582539876
 20
-6
 42
1
  0
SEQEND
  8
1
  0
POLYLINE
  8
1
 70
1
 66
1
 40
0.5
 41
0.5
  0
VERTEX
  8
1
 10
13.2838284174601
 20
-6
 42
1
  0
VERTEX
  8
1
 10
13.7838284174601
 20
-6
 42
1
  0
SEQEND
  8
1
  0
LINE
  8
1
 10
-0.466171582539876
 20
6
 11
-0.466171582539876
 21
10
  0
LINE
  8
1
 10
7.53382841746012
 20
0
 11
3.53382841746012
 21
0
  0
LINE
  8
1
 10
10.9979170104222
 20
7.51835257961631E-06
 11
13.5338284174601
 21
7.51835257961631E-06
  0
LINE
  8
1
 10
10.9979170104222
 20
2.00000751835258
 11
10.9979170104222
 21
-1.99999248164742
  0
LINE
  8
1
 10
10.9979170104222
 20
2.00000751835258
 11
7.53381539528449
 21
7.51835257961631E-06
  0
LINE
  8
1
 10
10.9979170104222
 20
-1.99999248164742
 11
7.53381539528449
 21
7.51835257961631E-06
  0
LINE
  8
1
 10
-16.4661715825399
 20
0
 11
-12.4661715825399
 21
0
  0
LINE
  8
1
 10
-19.930260175502
 20
7.51835257961631E-06
 11
-22.4661715825399
 21
7.51835257961631E-06
  0
LINE
  8
1
 10
-19.930260175502
 20
2.00000751835258
 11
-19.930260175502
 21
-1.99999248164742
  0
LINE
  8
1
 10
-19.930260175502
 20
2.00000751835258
 11
-16.4661585603642
 21
7.51835257961631E-06
  0
LINE
  8
1
 10
-19.930260175502
 20
-1.99999248164742
 11
-16.4661585603642
 21
7.51835257961631E-06
  0
LINE
  8
1
 10
-8.46617158253988
 20
6
 11
-8.46617158253988
 21
4
  0
INSERT
  8
1
  2
LCBP1
 10
-8.46617158253988
 20
4
 50
-90
  0
LINE
  8
1
 10
-8.46617158253988
 20
-2
 11
-8.46617158253988
 21
0
  0
INSERT
  8
1
  2
LCBP1
 10
-8.46617158253988
 20
0
 50
90
  0
POLYLINE
  8
1
 66
1
  0
VERTEX
  8
1
 10
-12.4661715825399
 20
6
  0
VERTEX
  8
1
 10
-4.46617158253988
 20
6
  0
VERTEX
  8
1
 10
-4.46617158253988
 20
-2
  0
VERTEX
  8
1
 10
-12.4661715825399
 20
-2
  0
VERTEX
  8
1
 10
-12.4661715825399
 20
6
  0
SEQEND
  8
1
  0
LINE
  8
1
 10
-0.466171582539876
 20
-2
 11
-0.466171582539876
 21
6
  0
INSERT
  8
1
  2
LCA1
 10
-0.466171582539876
 20
6
 50
90
  0
POLYLINE
  8
1
 66
1
  0
VERTEX
  8
1
 10
-4.46617158253988
 20
6
  0
VERTEX
  8
1
 10
3.53382841746012
 20
6
  0
VERTEX
  8
1
 10
3.53382841746012
 20
-2
  0
VERTEX
  8
1
 10
-4.46617158253988
 20
-2
  0
VERTEX
  8
1
 10
-4.46617158253988
 20
6
  0
SEQEND
  8
1
  0
CIRCLE
  8
CONNECTIONS
 10
15.5338284174601
 20
-14
 40
0
  0
CIRCLE
  8
CONNECTIONS
 10
15.5338284174601
 20
14
 40
0
  0
CIRCLE
  8
CONNECTIONS
 10
23.5338284174601
 20
-6
 40
0
  0
CIRCLE
  8
CONNECTIONS
 10
-0.466171582539876
 20
14
 40
0
  0
CIRCLE
  8
CONNECTIONS
 10
-26.4661715825399
 20
0
 40
0
  0
CIRCLE
  8
CONNECTIONS
 10
-26.4661715825399
 20
-6
 40
0
  0
ENDBLK
  8
0
  0
ENDSEC
  0
SECTION
  2
ENTITIES
  0
INSERT
  8
1
  2
B24249_00995259
 10
26.4661715825399
 20
14
  0
ENDSEC
  0
EOF
