  0
SECTION
  2
HEADER
  9
$LIMMIN
 10
0
 20
0
  9
$LIMMAX
 10
52.5
 20
74.25
  9
$EXTMIN
 10
0
 20
33
  9
$EXTMAX
 10
0
 20
33
  0
ENDSEC
  0
SECTION
  2
TABLES
  0
TABLE
  2
LTYPE
 70
9
  0
LTYPE
  2
CONTINUOUS
 70
64
  3
Solid line
 72
65
 73
0
 40
0
  0
LTYPE
  2
DASHED
 70
64
  3
__ __ __ __ __ __ __ __ __
 72
65
 73
2
 40
0.75
 49
0.5
 49
-0.25
  0
LTYPE
  2
DOT
 70
64
  3
...........................
 72
65
 73
2
 40
0.25
 49
0
 49
-0.25
  0
LTYPE
  2
DASHDOT
 70
64
  3
__ . __ . __ . __ . __ . __ . 
 72
65
 73
4
 40
1
 49
0.5
 49
-0.25
 49
0
 49
-0.25
  0
ENDTAB
  0
TABLE
  2
LAYER
 70
10
  0
LAYER
  2
1
 70
0
 62
7
  6
CONTINUOUS
  0
LAYER
  2
CONNECTIONS
 70
0
 62
-7
  6
CONTINUOUS
  0
ENDTAB
  0
ENDSEC
  0
SECTION
  2
BLOCKS
  0
BLOCK
  8
0
  2
TRICON
 70
0
 10
0
 20
0
  0
POLYLINE
  8
1
 70
1
 66
1
 40
0.5
 41
0.5
  0
VERTEX
  8
1
 10
-0.25
 20
0
 42
1
  0
VERTEX
  8
1
 10
0.25
 20
0
 42
1
  0
SEQEND
  8
1
  0
ENDBLK
  8
0
  0
BLOCK
  8
0
  2
TRICONSMALL
 70
0
 10
0
 20
0
  0
POLYLINE
  8
1
 70
1
 66
1
 40
0.25
 41
0.25
  0
VERTEX
  8
1
 10
-0.125
 20
0
 42
1
  0
VERTEX
  8
1
 10
0.125
 20
0
 42
1
  0
SEQEND
  8
1
  0
ENDBLK
  8
0
  0
BLOCK
  8
0
  2
TRICONCIRCLE
 70
0
 10
0
 20
0
  0
CIRCLE
  8
1
 10
0
 20
0
 40
0.5
  0
ENDBLK
  8
0
  0
BLOCK
  8
0
  2
LCBP0
 70
0
 10
0
 20
0
  0
LINE
  8
1
 10
0
 20
-0.46875
 11
0
 21
0.46875
  0
ENDBLK
  8
0
  0
BLOCK
  8
0
  2
LCBP1
 70
0
 10
0
 20
0
  0
LINE
  8
1
 10
0
 20
-0.625
 11
0
 21
0.625
  0
ENDBLK
  8
0
  0
BLOCK
  8
0
  2
LCBP2
 70
0
 10
0
 20
0
  0
LINE
  8
1
 10
0
 20
-0.9375
 11
0
 21
0.9375
  0
ENDBLK
  8
0
  0
BLOCK
  8
0
  2
LCA1
 70
0
 10
0
 20
0
  0
SOLID
  8
1
 62
7 
 10
0
 20
0
 11
-1.4
 21
-0.275
 12
-1.4
 22
0.275
 13
-1.4
 23
0.275
  0
ENDBLK
  8
0
  0
BLOCK
  8
0
  2
LCA2
 70
0
 10
0
 20
0
  0
SOLID
  8
1
 62
7 
 10
0
 20
0
 11
-1.65
 21
-0.525
 12
-1.65
 22
0.525
 13
-1.65
 23
0.525
  0
ENDBLK
  8
0
  0
BLOCK
  8
0
  2
LCA3
 70
0
 10
0
 20
0
  0
SOLID
  8
1
 62
7 
 10
0
 20
0
 11
-2.15
 21
-1.15
 12
-2.15
 22
1.15
 13
-2.15
 23
1.15
  0
ENDBLK
  8
0
  0
BLOCK
  8
0
  2
LCA1R
 70
0
 10
0
 20
0
  0
SOLID
  8
1
 62
7 
 10
0
 20
0
 11
1.4
 21
-0.275
 12
1.4
 22
0.275
 13
1.4
 23
0.275
  0
ENDBLK
  8
0
  0
BLOCK
  8
0
  2
LCA2R
 70
0
 10
0
 20
0
  0
SOLID
  8
1
 62
7 
 10
0
 20
0
 11
1.65
 21
-0.525
 12
1.65
 22
0.525
 13
1.65
 23
0.525
  0
ENDBLK
  8
0
  0
BLOCK
  8
0
  2
LCA3R
 70
0
 10
0
 20
0
  0
SOLID
  8
1
 62
7 
 10
0
 20
0
 11
2.15
 21
-1.15
 12
2.15
 22
1.15
 13
2.15
 23
1.15
  0
ENDBLK
  8
0
  0
BLOCK
  8
0
  2
B5402_00995252
 70
0
 10
0
 20
0
  0
POLYLINE
  8
1
 66
1
  0
VERTEX
  8
1
 10
-12.5
 20
16.5
  0
VERTEX
  8
1
 10
12.5
 20
16.5
  0
VERTEX
  8
1
 10
12.5
 20
-16.5
  0
VERTEX
  8
1
 10
-12.5
 20
-16.5
  0
VERTEX
  8
1
 10
-12.5
 20
16.5
  0
SEQEND
  8
1
  0
TEXT
  8
1
 40
2.475
 41
0.75
  1
1
  7
STANDARD
 73
2
 10
14.5
 20
-9.49999999999999
 11
14.5
 21
-9.49999999999999
  0
TEXT
  8
1
 40
2.475
 41
0.75
  1
2
  7
STANDARD
 73
2
 10
14.5
 20
-2.5
 11
14.5
 21
-2.5
  0
TEXT
  8
1
 40
2.475
 41
0.75
  1
1
  7
STANDARD
 72
2
 73
2
 10
-14.5
 20
-2.5
 11
-14.5
 21
-2.5
  0
LINE
  8
1
 10
12.5
 20
-12.5
 11
16.5
 21
-12.5
  0
LINE
  8
1
 10
12.5
 20
1.5
 11
16.5
 21
1.5
  0
LINE
  8
1
 10
-12.5
 20
1.5
 11
-16.5
 21
1.5
  0
LINE
  8
1
 10
-8.5
 20
-12.5
 11
12.5
 21
-12.5
  0
LINE
  8
1
 10
-8.5
 20
1.5
 11
-8.5
 21
-12.5
  0
POLYLINE
  8
1
 70
1
 66
1
 40
0.6
 41
0.6
  0
VERTEX
  8
1
 10
-8.8
 20
1.5
 42
1
  0
VERTEX
  8
1
 10
-8.2
 20
1.5
 42
1
  0
SEQEND
  8
1
  0
LINE
  8
1
 10
4.5
 20
1.5
 11
12.5
 21
1.5
  0
LINE
  8
1
 10
-12.5
 20
1.5
 11
-3.5
 21
1.5
  0
LINE
  8
1
 10
6
 20
-8.5
 11
8.5
 21
-8.5
  0
LINE
  8
1
 10
-5.5
 20
-8.5
 11
-3
 21
-8.5
  0
POLYLINE
  8
1
 70
1
 66
1
 40
0.6
 41
0.6
  0
VERTEX
  8
1
 10
8.2
 20
1.5
 42
1
  0
VERTEX
  8
1
 10
8.8
 20
1.5
 42
1
  0
SEQEND
  8
1
  0
POLYLINE
  8
1
 70
1
 66
1
 40
0.6
 41
0.6
  0
VERTEX
  8
1
 10
-5.8
 20
1.5
 42
1
  0
VERTEX
  8
1
 10
-5.2
 20
1.5
 42
1
  0
SEQEND
  8
1
  0
LINE
  8
1
 10
8.5
 20
-8.5
 11
8.5
 21
1.5
  0
LINE
  8
1
 10
-5.5
 20
1.5
 11
-5.5
 21
-8.5
  0
LINE
  8
1
 10
0.39999999999998
 20
-8.5
 11
-3
 21
-8.5
  0
LINE
  8
1
 10
6
 20
-8.5
 11
3
 21
-8.5
  0
POLYLINE
  8
1
 66
1
  0
VERTEX
  8
1
 10
1.00000000000001
 20
-10.5
  0
VERTEX
  8
1
 10
3
 20
-8.5
  0
VERTEX
  8
1
 10
1.00000000000001
 20
-6.5
  0
SEQEND
  8
1
  0
CIRCLE
  8
1
 10
1.53333333333334
 20
-8.5
 40
1
  0
LINE
  8
1
 10
-5.94493398295548
 20
8.77829222480391
 11
2.94493315062171
 21
11.2217042545983
  0
INSERT
  8
1
  2
LCA1
 10
2.94493315062171
 20
11.2217042545983
 50
15.3684528725217
  0
POLYLINE
  8
1
 66
1
  0
VERTEX
  8
1
 10
-1.5
 20
7.5
  0
VERTEX
  8
1
 10
0.5
 20
7.9166666666667
  0
VERTEX
  8
1
 10
-3.5
 20
8.75
  0
VERTEX
  8
1
 10
0.5
 20
9.58333333333337
  0
VERTEX
  8
1
 10
-3.5
 20
10.4166666666667
  0
VERTEX
  8
1
 10
0.5
 20
11.25
  0
VERTEX
  8
1
 10
-3.5
 20
12.0833333333333
  0
VERTEX
  8
1
 10
-1.5
 20
12.5
  0
SEQEND
  8
1
  0
POLYLINE
  8
1
 66
1
  0
VERTEX
  8
1
 10
-3.5
 20
6.5
  0
VERTEX
  8
1
 10
-5.5
 20
5.5
  0
VERTEX
  8
1
 10
-3.5
 20
4.5
  0
SEQEND
  8
1
  0
POLYLINE
  8
1
  6
DOT
 66
1
  0
VERTEX
  8
1
 10
-1.5
 20
-0.5
  0
VERTEX
  8
1
 10
-1.5
 20
-4.5
  0
VERTEX
  8
1
 10
6.5
 20
-4.5
  0
VERTEX
  8
1
 10
6.5
 20
-0.5
  0
VERTEX
  8
1
 10
4.5
 20
1.5
  0
SEQEND
  8
1
  0
POLYLINE
  8
1
 66
1
  0
VERTEX
  8
1
 10
-3.5
 20
-0.5
  0
VERTEX
  8
1
 10
4.5
 20
-0.5
  0
VERTEX
  8
1
 10
4.5
 20
7.5
  0
VERTEX
  8
1
 10
-3.5
 20
7.5
  0
VERTEX
  8
1
 10
-3.5
 20
-0.5
  0
SEQEND
  8
1
  0
LINE
  8
1
 10
4.5
 20
1.5
 11
-3.5
 21
1.5
  0
INSERT
  8
1
  2
LCA1
 10
-3.5
 20
1.5
 50
-180
  0
INSERT
  8
1
  2
LCA1R
 10
4.5
 20
1.5
 50
-180
  0
CIRCLE
  8
CONNECTIONS
 10
-16.5
 20
1.5
 40
0
  0
CIRCLE
  8
CONNECTIONS
 10
16.5
 20
1.5
 40
0
  0
CIRCLE
  8
CONNECTIONS
 10
16.5
 20
-12.5
 40
0
  0
ENDBLK
  8
0
  0
ENDSEC
  0
SECTION
  2
ENTITIES
  0
INSERT
  8
1
  2
B5402_00995252
 10
16.5
 20
16.5
  0
ENDSEC
  0
EOF
