  0
SECTION
  2
HEADER
  9
$LIMMIN
 10
0
 20
0
  9
$LIMMAX
 10
52.5
 20
74.25
  9
$EXTMIN
 10
0
 20
61
  9
$EXTMAX
 10
0
 20
43
  0
ENDSEC
  0
SECTION
  2
TABLES
  0
TABLE
  2
LTYPE
 70
9
  0
LTYPE
  2
CONTINUOUS
 70
64
  3
Solid line
 72
65
 73
0
 40
0
  0
LTYPE
  2
DASHED
 70
64
  3
__ __ __ __ __ __ __ __ __
 72
65
 73
2
 40
0.75
 49
0.5
 49
-0.25
  0
LTYPE
  2
DOT
 70
64
  3
...........................
 72
65
 73
2
 40
0.25
 49
0
 49
-0.25
  0
LTYPE
  2
DASHDOT
 70
64
  3
__ . __ . __ . __ . __ . __ . 
 72
65
 73
4
 40
1
 49
0.5
 49
-0.25
 49
0
 49
-0.25
  0
ENDTAB
  0
TABLE
  2
LAYER
 70
10
  0
LAYER
  2
1
 70
0
 62
7
  6
CONTINUOUS
  0
LAYER
  2
CONNECTIONS
 70
0
 62
-7
  6
CONTINUOUS
  0
ENDTAB
  0
ENDSEC
  0
SECTION
  2
BLOCKS
  0
BLOCK
  8
0
  2
TRICON
 70
0
 10
0
 20
0
  0
POLYLINE
  8
1
 70
1
 66
1
 40
0.5
 41
0.5
  0
VERTEX
  8
1
 10
-0.25
 20
0
 42
1
  0
VERTEX
  8
1
 10
0.25
 20
0
 42
1
  0
SEQEND
  8
1
  0
ENDBLK
  8
0
  0
BLOCK
  8
0
  2
TRICONSMALL
 70
0
 10
0
 20
0
  0
POLYLINE
  8
1
 70
1
 66
1
 40
0.25
 41
0.25
  0
VERTEX
  8
1
 10
-0.125
 20
0
 42
1
  0
VERTEX
  8
1
 10
0.125
 20
0
 42
1
  0
SEQEND
  8
1
  0
ENDBLK
  8
0
  0
BLOCK
  8
0
  2
TRICONCIRCLE
 70
0
 10
0
 20
0
  0
CIRCLE
  8
1
 10
0
 20
0
 40
0.5
  0
ENDBLK
  8
0
  0
BLOCK
  8
0
  2
LCBP0
 70
0
 10
0
 20
0
  0
LINE
  8
1
 10
0
 20
-0.46875
 11
0
 21
0.46875
  0
ENDBLK
  8
0
  0
BLOCK
  8
0
  2
LCBP1
 70
0
 10
0
 20
0
  0
LINE
  8
1
 10
0
 20
-0.625
 11
0
 21
0.625
  0
ENDBLK
  8
0
  0
BLOCK
  8
0
  2
LCBP2
 70
0
 10
0
 20
0
  0
LINE
  8
1
 10
0
 20
-0.9375
 11
0
 21
0.9375
  0
ENDBLK
  8
0
  0
BLOCK
  8
0
  2
LCA1
 70
0
 10
0
 20
0
  0
SOLID
  8
1
 62
7 
 10
0
 20
0
 11
-1.4
 21
-0.275
 12
-1.4
 22
0.275
 13
-1.4
 23
0.275
  0
ENDBLK
  8
0
  0
BLOCK
  8
0
  2
LCA2
 70
0
 10
0
 20
0
  0
SOLID
  8
1
 62
7 
 10
0
 20
0
 11
-1.65
 21
-0.525
 12
-1.65
 22
0.525
 13
-1.65
 23
0.525
  0
ENDBLK
  8
0
  0
BLOCK
  8
0
  2
LCA3
 70
0
 10
0
 20
0
  0
SOLID
  8
1
 62
7 
 10
0
 20
0
 11
-2.15
 21
-1.15
 12
-2.15
 22
1.15
 13
-2.15
 23
1.15
  0
ENDBLK
  8
0
  0
BLOCK
  8
0
  2
LCA1R
 70
0
 10
0
 20
0
  0
SOLID
  8
1
 62
7 
 10
0
 20
0
 11
1.4
 21
-0.275
 12
1.4
 22
0.275
 13
1.4
 23
0.275
  0
ENDBLK
  8
0
  0
BLOCK
  8
0
  2
LCA2R
 70
0
 10
0
 20
0
  0
SOLID
  8
1
 62
7 
 10
0
 20
0
 11
1.65
 21
-0.525
 12
1.65
 22
0.525
 13
1.65
 23
0.525
  0
ENDBLK
  8
0
  0
BLOCK
  8
0
  2
LCA3R
 70
0
 10
0
 20
0
  0
SOLID
  8
1
 62
7 
 10
0
 20
0
 11
2.15
 21
-1.15
 12
2.15
 22
1.15
 13
2.15
 23
1.15
  0
ENDBLK
  8
0
  0
BLOCK
  8
0
  2
B196676_00995240
 70
0
 10
0
 20
0
  0
POLYLINE
  8
1
 66
1
  0
VERTEX
  8
1
 10
-30.5
 20
17.5
  0
VERTEX
  8
1
 10
30.5
 20
17.5
  0
VERTEX
  8
1
 10
30.5
 20
-17.5
  0
VERTEX
  8
1
 10
-30.5
 20
-17.5
  0
VERTEX
  8
1
 10
-30.5
 20
17.5
  0
SEQEND
  8
1
  0
TEXT
  8
1
 40
2.4749997138977
 41
0.75
  1
12
  7
STANDARD
 72
2
 10
-8.4353136698405
 20
-15.5625001430511
 11
-8.4353136698405
 21
-15.5625001430511
  0
TEXT
  8
1
 40
2.4
 41
0.75
  1
2
  7
STANDARD
 10
16.5000006357829
 20
18.9
  0
LINE
  8
1
 10
15.5
 20
21.5
 11
15.5
 21
17.5
  0
TEXT
  8
1
 40
2.4
 41
0.75
  1
3
  7
STANDARD
 73
3
 10
20.1347783406576
 20
-18.8555341720581
 11
20.1347783406576
 21
-18.8555341720581
  0
LINE
  8
1
 10
19.5
 20
-17.5
 11
19.5
 21
-21.5
  0
TEXT
  8
1
 40
2.4
 41
0.75
  1
1
  7
STANDARD
 72
2
 73
3
 10
14.5049377441406
 20
-18.8555341720581
 11
14.5049377441406
 21
-18.8555341720581
  0
LINE
  8
1
 10
15.5
 20
-17.5
 11
15.5
 21
-21.5
  0
LINE
  8
1
 10
-10.5
 20
0.5
 11
-14.5
 21
0.5
  0
POLYLINE
  8
1
 70
1
 66
1
 40
0.5
 41
0.5
  0
VERTEX
  8
1
 10
5.25
 20
-3.5
 42
1
  0
VERTEX
  8
1
 10
5.75
 20
-3.5
 42
1
  0
SEQEND
  8
1
  0
LINE
  8
1
 10
-26.5
 20
0.5
 11
-22.5
 21
0.5
  0
LINE
  8
1
 10
-26.5
 20
0.5
 11
-26.5
 21
-11.5
  0
LINE
  8
1
 10
-26.5
 20
-11.5
 11
-9.5
 21
-11.5
  0
LINE
  8
1
 10
-9.5
 20
-3.5
 11
-9.5
 21
-11.5
  0
LINE
  8
1
 10
-9.5
 20
-3.5
 11
5.5
 21
-3.5
  0
LINE
  8
1
 10
15.5
 20
13.5
 11
-20.5
 21
13.5
  0
LINE
  8
1
 10
-20.5
 20
12.5
 11
-20.5
 21
13.5
  0
LINE
  8
1
 10
15.5
 20
6.5
 11
15.5
 21
17.5
  0
LINE
  8
1
 10
19.5
 20
-17.5
 11
19.5
 21
-1.5
  0
LINE
  8
1
 10
15.5
 20
-17.5
 11
15.5
 21
-1.5
  0
POLYLINE
  8
1
 70
1
 66
1
 40
0.5
 41
0.5
  0
VERTEX
  8
1
 10
15.25
 20
13.55
 42
1
  0
VERTEX
  8
1
 10
15.75
 20
13.55
 42
1
  0
SEQEND
  8
1
  0
LINE
  8
1
 10
-4.5
 20
-6
 11
-0.5
 21
-6
  0
LINE
  8
1
 10
-4.5
 20
-5.5
 11
-4.5
 21
-8.5
  0
LINE
  8
1
 10
-4.5
 20
-8
 11
-0.5
 21
-8
  0
LINE
  8
1
 10
-0.5
 20
-9.5
 11
-0.5
 21
-5.5
  0
POLYLINE
  8
1
 66
1
  0
VERTEX
  8
1
 10
26.5
 20
0.5
  0
VERTEX
  8
1
 10
26.0833333333333
 20
-1.5
  0
VERTEX
  8
1
 10
25.25
 20
2.5
  0
VERTEX
  8
1
 10
24.4166666666668
 20
-1.5
  0
VERTEX
  8
1
 10
23.5833333333332
 20
2.5
  0
VERTEX
  8
1
 10
22.75
 20
-1.5
  0
VERTEX
  8
1
 10
21.9166666666668
 20
2.5
  0
VERTEX
  8
1
 10
21.5
 20
0.5
  0
SEQEND
  8
1
  0
POLYLINE
  8
1
 66
1
  0
VERTEX
  8
1
 10
-18.5
 20
-3.5
  0
VERTEX
  8
1
 10
-22.5
 20
-3.5
  0
VERTEX
  8
1
 10
-22.5
 20
-9.5
  0
VERTEX
  8
1
 10
-18.5
 20
-9.5
  0
VERTEX
  8
1
 10
-18.5
 20
-3.5
  0
SEQEND
  8
1
  0
LINE
  8
1
 10
-18.5
 20
-9.5
 11
-20.5
 21
-6.03589838486224
  0
LINE
  8
1
 10
-20.5
 20
-6.03589838486224
 11
-20.5
 21
-3.5
  0
LINE
  8
1
 10
-22.5
 20
-9.5
 11
-20.5
 21
-6.03589838486224
  0
LINE
  8
1
 10
-4.5
 20
-13.5
 11
-2.5
 21
-9.5
  0
POLYLINE
  8
1
 66
1
  0
VERTEX
  8
1
 10
-6.5
 20
-9.5
  0
VERTEX
  8
1
 10
-0.5
 20
-9.5
  0
VERTEX
  8
1
 10
-0.5
 20
-13.5
  0
VERTEX
  8
1
 10
-6.5
 20
-13.5
  0
VERTEX
  8
1
 10
-6.5
 20
-9.5
  0
SEQEND
  8
1
  0
LINE
  8
1
 10
5.5
 20
-1.5
 11
5.5
 21
-9.5
  0
POLYLINE
  8
1
 66
1
  0
VERTEX
  8
1
 10
-0.5
 20
-9.5
  0
VERTEX
  8
1
 10
5.5
 20
-9.5
  0
VERTEX
  8
1
 10
5.5
 20
-13.5
  0
VERTEX
  8
1
 10
-0.5
 20
-13.5
  0
VERTEX
  8
1
 10
-0.5
 20
-9.5
  0
SEQEND
  8
1
  0
LINE
  8
1
 10
-0.5
 20
-9.52776740392049
 11
2.96410161513775
 21
-11.5277674039205
  0
LINE
  8
1
 10
-0.5
 20
-13.5277674039205
 11
2.96410161513775
 21
-11.5277674039205
  0
LINE
  8
1
 10
-20.5000075183526
 20
7.03591140703094
 11
-20.5000075183526
 21
4.5
  0
LINE
  8
1
 10
-20.5
 20
12.5
 11
-20.5
 21
10.5
  0
LINE
  8
1
 10
-18.5
 20
10.5
 11
-22.5
 21
10.5
  0
LINE
  8
1
 10
-18.5
 20
10.5
 11
-20.5
 21
7.03589838486224
  0
LINE
  8
1
 10
-22.5
 20
10.5
 11
-20.5
 21
7.03589838486224
  0
LINE
  8
1
 10
-6.49999999999306
 20
0.5
 11
-2.5
 21
0.5
  0
LINE
  8
1
 10
-9.96408859296212
 20
0.50000751835258
 11
-12.5
 21
0.50000751835258
  0
LINE
  8
1
 10
-9.96408859296212
 20
2.50000751835258
 11
-9.96408859296212
 21
-1.49999248164742
  0
LINE
  8
1
 10
-9.96408859296212
 20
2.50000751835258
 11
-6.49998697782436
 21
0.50000751835258
  0
LINE
  8
1
 10
-9.96408859296212
 20
-1.49999248164742
 11
-6.49998697782436
 21
0.50000751835258
  0
LINE
  8
1
 10
-14.499988428323
 20
2.50001157167706
 11
-22.499988428323
 21
2.50001157167706
  0
INSERT
  8
1
  2
LCA1R
 10
-14.499988428323
 20
2.50001157167706
 50
-180
  0
POLYLINE
  8
1
 66
1
  0
VERTEX
  8
1
 10
-22.5
 20
-2.5
  0
VERTEX
  8
1
 10
-24.5
 20
-1.5
  0
VERTEX
  8
1
 10
-22.5
 20
-0.5
  0
SEQEND
  8
1
  0
POLYLINE
  8
1
 66
1
  0
VERTEX
  8
1
 10
-16.4998773402233
 20
-3.50001157167705
  0
VERTEX
  8
1
 10
-14.4998773402233
 20
-3.91667823834375
  0
VERTEX
  8
1
 10
-18.4998773402233
 20
-4.75001157167705
  0
VERTEX
  8
1
 10
-14.4998773402233
 20
-5.58334490501043
  0
VERTEX
  8
1
 10
-18.4998773402233
 20
-6.41667823834375
  0
VERTEX
  8
1
 10
-14.4998773402233
 20
-7.25001157167705
  0
VERTEX
  8
1
 10
-18.4998773402233
 20
-8.08334490501035
  0
VERTEX
  8
1
 10
-16.4998773402233
 20
-8.50001157167705
  0
SEQEND
  8
1
  0
POLYLINE
  8
1
 66
1
  0
VERTEX
  8
1
 10
-22.499988428323
 20
4.50001157167705
  0
VERTEX
  8
1
 10
-14.499988428323
 20
4.50001157167705
  0
VERTEX
  8
1
 10
-14.499988428323
 20
-3.49998842832295
  0
VERTEX
  8
1
 10
-22.499988428323
 20
-3.49998842832295
  0
VERTEX
  8
1
 10
-22.499988428323
 20
4.50001157167705
  0
SEQEND
  8
1
  0
LINE
  8
1
 10
15.5
 20
-1.5
 11
15.5
 21
0.5
  0
INSERT
  8
1
  2
LCBP1
 10
15.5
 20
0.5
 50
90
  0
POLYLINE
  8
1
 66
1
  0
VERTEX
  8
1
 10
13.5
 20
6.5
  0
VERTEX
  8
1
 10
21.5
 20
6.5
  0
VERTEX
  8
1
 10
21.5
 20
-1.5
  0
VERTEX
  8
1
 10
13.5
 20
-1.5
  0
VERTEX
  8
1
 10
13.5
 20
6.5
  0
SEQEND
  8
1
  0
LINE
  8
1
 10
15.5
 20
6.5
 11
19.5
 21
-1.5
  0
INSERT
  8
1
  2
LCA1
 10
19.5
 20
-1.5
 50
-63.434948822922
  0
POLYLINE
  8
1
 66
1
  0
VERTEX
  8
1
 10
-2.5
 20
6.5
  0
VERTEX
  8
1
 10
5.5
 20
6.5
  0
VERTEX
  8
1
 10
5.5
 20
-1.5
  0
VERTEX
  8
1
 10
-2.5
 20
-1.5
  0
VERTEX
  8
1
 10
-2.5
 20
6.5
  0
SEQEND
  8
1
  0
LINE
  8
1
 10
3.5
 20
-1.5
 11
3.5
 21
0.5
  0
INSERT
  8
1
  2
LCBP1
 10
3.5
 20
0.5
 50
90
  0
LINE
  8
1
 10
-0.5
 20
-1.5
 11
-0.5
 21
6.5
  0
INSERT
  8
1
  2
LCA1
 10
-0.5
 20
6.5
 50
90
  0
LINE
  8
1
 10
5.77221525957993
 20
0.781713569556812
 11
10.7
 21
4.8
  0
INSERT
  8
1
  2
LCA1
 10
10.7
 20
4.8
 50
39.1949950278756
  0
ARC
  8
1
 10
-2.5
 20
2.5
 40
9
 50
340.528596800055
 51
19.4710505793386
  0
ARC
  8
1
 10
17.5
 20
2.5
 40
9
 50
160.52865870751
 51
199.47139531546
  0
POLYLINE
  8
1
 66
1
  0
VERTEX
  8
1
 10
5.5
 20
6.5
  0
VERTEX
  8
1
 10
13.5
 20
6.5
  0
VERTEX
  8
1
 10
13.5
 20
-1.5
  0
VERTEX
  8
1
 10
5.5
 20
-1.5
  0
VERTEX
  8
1
 10
5.5
 20
6.5
  0
SEQEND
  8
1
  0
LINE
  8
1
 10
11.5
 20
-1.5
 11
11.5
 21
0.5
  0
INSERT
  8
1
  2
LCBP1
 10
11.5
 20
0.5
 50
90
  0
LINE
  8
1
 10
7.5
 20
-1.5
 11
7.5
 21
6.5
  0
INSERT
  8
1
  2
LCA1
 10
7.5
 20
6.5
 50
90
  0
CIRCLE
  8
CONNECTIONS
 10
-6.35762411753336
 20
-11.5277674039205
 40
0
  0
CIRCLE
  8
CONNECTIONS
 10
15.5
 20
-21.5
 40
0
  0
CIRCLE
  8
CONNECTIONS
 10
19.5
 20
-21.5
 40
0
  0
CIRCLE
  8
CONNECTIONS
 10
15.5
 20
21.5
 40
0
  0
CIRCLE
  8
CONNECTIONS
 10
-2.5
 20
0.5
 40
0
  0
ENDBLK
  8
0
  0
ENDSEC
  0
SECTION
  2
ENTITIES
  0
INSERT
  8
1
  2
B196676_00995240
 10
30.5
 20
21.5
  0
ENDSEC
  0
EOF
