  0
SECTION
  2
HEADER
  9
$LIMMIN
 10
0
 20
0
  9
$LIMMAX
 10
52.5
 20
74.25
  9
$EXTMIN
 10
0
 20
48
  9
$EXTMAX
 10
0
 20
30.0819691577699
  0
ENDSEC
  0
SECTION
  2
TABLES
  0
TABLE
  2
LTYPE
 70
9
  0
LTYPE
  2
CONTINUOUS
 70
64
  3
Solid line
 72
65
 73
0
 40
0
  0
LTYPE
  2
DASHED
 70
64
  3
__ __ __ __ __ __ __ __ __
 72
65
 73
2
 40
0.75
 49
0.5
 49
-0.25
  0
LTYPE
  2
DOT
 70
64
  3
...........................
 72
65
 73
2
 40
0.25
 49
0
 49
-0.25
  0
LTYPE
  2
DASHDOT
 70
64
  3
__ . __ . __ . __ . __ . __ . 
 72
65
 73
4
 40
1
 49
0.5
 49
-0.25
 49
0
 49
-0.25
  0
ENDTAB
  0
TABLE
  2
LAYER
 70
10
  0
LAYER
  2
1
 70
0
 62
7
  6
CONTINUOUS
  0
LAYER
  2
CONNECTIONS
 70
0
 62
-7
  6
CONTINUOUS
  0
ENDTAB
  0
ENDSEC
  0
SECTION
  2
BLOCKS
  0
BLOCK
  8
0
  2
TRICON
 70
0
 10
0
 20
0
  0
POLYLINE
  8
1
 70
1
 66
1
 40
0.5
 41
0.5
  0
VERTEX
  8
1
 10
-0.25
 20
0
 42
1
  0
VERTEX
  8
1
 10
0.25
 20
0
 42
1
  0
SEQEND
  8
1
  0
ENDBLK
  8
0
  0
BLOCK
  8
0
  2
TRICONSMALL
 70
0
 10
0
 20
0
  0
POLYLINE
  8
1
 70
1
 66
1
 40
0.25
 41
0.25
  0
VERTEX
  8
1
 10
-0.125
 20
0
 42
1
  0
VERTEX
  8
1
 10
0.125
 20
0
 42
1
  0
SEQEND
  8
1
  0
ENDBLK
  8
0
  0
BLOCK
  8
0
  2
TRICONCIRCLE
 70
0
 10
0
 20
0
  0
CIRCLE
  8
1
 10
0
 20
0
 40
0.5
  0
ENDBLK
  8
0
  0
BLOCK
  8
0
  2
LCBP0
 70
0
 10
0
 20
0
  0
LINE
  8
1
 10
0
 20
-0.46875
 11
0
 21
0.46875
  0
ENDBLK
  8
0
  0
BLOCK
  8
0
  2
LCBP1
 70
0
 10
0
 20
0
  0
LINE
  8
1
 10
0
 20
-0.625
 11
0
 21
0.625
  0
ENDBLK
  8
0
  0
BLOCK
  8
0
  2
LCBP2
 70
0
 10
0
 20
0
  0
LINE
  8
1
 10
0
 20
-0.9375
 11
0
 21
0.9375
  0
ENDBLK
  8
0
  0
BLOCK
  8
0
  2
LCA1
 70
0
 10
0
 20
0
  0
SOLID
  8
1
 62
7 
 10
0
 20
0
 11
-1.4
 21
-0.275
 12
-1.4
 22
0.275
 13
-1.4
 23
0.275
  0
ENDBLK
  8
0
  0
BLOCK
  8
0
  2
LCA2
 70
0
 10
0
 20
0
  0
SOLID
  8
1
 62
7 
 10
0
 20
0
 11
-1.65
 21
-0.525
 12
-1.65
 22
0.525
 13
-1.65
 23
0.525
  0
ENDBLK
  8
0
  0
BLOCK
  8
0
  2
LCA3
 70
0
 10
0
 20
0
  0
SOLID
  8
1
 62
7 
 10
0
 20
0
 11
-2.15
 21
-1.15
 12
-2.15
 22
1.15
 13
-2.15
 23
1.15
  0
ENDBLK
  8
0
  0
BLOCK
  8
0
  2
LCA1R
 70
0
 10
0
 20
0
  0
SOLID
  8
1
 62
7 
 10
0
 20
0
 11
1.4
 21
-0.275
 12
1.4
 22
0.275
 13
1.4
 23
0.275
  0
ENDBLK
  8
0
  0
BLOCK
  8
0
  2
LCA2R
 70
0
 10
0
 20
0
  0
SOLID
  8
1
 62
7 
 10
0
 20
0
 11
1.65
 21
-0.525
 12
1.65
 22
0.525
 13
1.65
 23
0.525
  0
ENDBLK
  8
0
  0
BLOCK
  8
0
  2
LCA3R
 70
0
 10
0
 20
0
  0
SOLID
  8
1
 62
7 
 10
0
 20
0
 11
2.15
 21
-1.15
 12
2.15
 22
1.15
 13
2.15
 23
1.15
  0
ENDBLK
  8
0
  0
BLOCK
  8
0
  2
B47716_00995232
 70
0
 10
0
 20
0
  0
POLYLINE
  8
1
 66
1
  0
VERTEX
  8
1
 10
-24
 20
15.0409845788849
  0
VERTEX
  8
1
 10
24
 20
15.0409845788849
  0
VERTEX
  8
1
 10
24
 20
-10.9590154211151
  0
VERTEX
  8
1
 10
-24
 20
-10.9590154211151
  0
VERTEX
  8
1
 10
-24
 20
15.0409845788849
  0
SEQEND
  8
1
  0
TEXT
  8
1
 40
2.475
 41
0.75
  1
12
  7
STANDARD
 72
2
 10
-10.9666666666667
 20
5.7451512455516
 11
-10.9666666666667
 21
5.7451512455516
  0
TEXT
  8
1
 40
2.475
 41
0.75
  1
3
  7
STANDARD
 10
6.83333333333333
 20
-16.3548487544484
  0
TEXT
  8
1
 40
2.475
 41
0.75
  1
12
  7
STANDARD
 72
2
 10
-10.7666666666667
 20
-16.3548487544484
 11
-10.7666666666667
 21
-16.3548487544484
  0
TEXT
  8
1
 40
2.475
 41
0.75
  1
1
  7
STANDARD
 72
2
 10
1.33333333333333
 20
-16.3548487544484
 11
1.33333333333333
 21
-16.3548487544484
  0
TEXT
  8
1
 40
2.475
 41
0.75
  1
12
  7
STANDARD
 72
2
 10
-2.31738948822021
 20
11.7062519828054
 11
-2.31738948822021
 21
11.7062519828054
  0
TEXT
  8
1
 40
2.475
 41
0.75
  1
2
  7
STANDARD
 10
14.5985543568929
 20
-16.3548487544484
  0
TEXT
  8
1
 40
2.475
 41
0.75
  1
1
  7
STANDARD
 72
2
 10
21.7333333333333
 20
11.6451512455516
 11
21.7333333333333
 21
11.6451512455516
  0
TEXT
  8
1
 40
2.475
 41
0.75
  1
2
  7
STANDARD
 10
2.63333333333333
 20
11.6451512455516
  0
TEXT
  8
1
 40
2.475
 41
0.75
  1
3
  7
STANDARD
 72
2
 10
17.8652210235596
 20
11.6062519828054
 11
17.8652210235596
 21
11.6062519828054
  0
LINE
  8
1
 10
-9.96666666666667
 20
-10.9923487544484
 11
-9.96666666666667
 21
-15.0409845788849
  0
LINE
  8
1
 10
2.03333333333333
 20
-14.9923487544484
 11
2.03333333333333
 21
-10.9923487544484
  0
LINE
  8
1
 10
6.03333333333333
 20
-10.9923487544484
 11
6.03333333333333
 21
-14.9923487544484
  0
LINE
  8
1
 10
14.0333333333333
 20
-10.9923487544484
 11
14.0333333333333
 21
-14.9923487544484
  0
LINE
  8
1
 10
22.0333333333333
 20
-4.9923487544484
 11
22.0333333333333
 21
15.0076512455516
  0
LINE
  8
1
 10
18.0333333333333
 20
-2.9923487544484
 11
18.0333333333333
 21
15.0076512455516
  0
LINE
  8
1
 10
2.03333333333333
 20
11.0076512455516
 11
2.03333333333333
 21
15.0076512455516
  0
LINE
  8
1
 10
-1.96666666666667
 20
15.0076512455516
 11
-1.96666666666667
 21
11.0076512455516
  0
POLYLINE
  8
1
 70
1
 66
1
 40
0.75
 41
0.75
  0
VERTEX
  8
1
 10
-10.3476563892707
 20
-2.99663779678029
 42
1
  0
VERTEX
  8
1
 10
-9.59765638927069
 20
-2.99663779678029
 42
1
  0
SEQEND
  8
1
  0
POLYLINE
  8
1
 70
1
 66
1
 40
0.75
 41
0.75
  0
VERTEX
  8
1
 10
1.65833333333333
 20
-3.0116144760042
 42
1
  0
VERTEX
  8
1
 10
2.40833333333333
 20
-3.0116144760042
 42
1
  0
SEQEND
  8
1
  0
POLYLINE
  8
1
 70
1
 66
1
 40
0.75
 41
0.75
  0
VERTEX
  8
1
 10
5.65833333333333
 20
-3.0116144760042
 42
1
  0
VERTEX
  8
1
 10
6.40833333333333
 20
-3.0116144760042
 42
1
  0
SEQEND
  8
1
  0
POLYLINE
  8
1
 70
1
 66
1
 40
0.75
 41
0.75
  0
VERTEX
  8
1
 10
1.65833333333333
 20
11.0076512455516
 42
1
  0
VERTEX
  8
1
 10
2.40833333333333
 20
11.0076512455516
 42
1
  0
SEQEND
  8
1
  0
LINE
  8
1
 10
2.03333333333333
 20
-2.9923487544484
 11
-1.96666666666667
 21
-2.9923487544484
  0
LINE
  8
1
 10
2.03333333333333
 20
9.0076512455516
 11
2.03333333333333
 21
11.0076512455516
  0
LINE
  8
1
 10
-9.94965986394558
 20
0.997447163918946
 11
-9.94396103412706
 21
-2.99659685332928
  0
POLYLINE
  8
1
 66
1
  0
VERTEX
  8
1
 10
-1.96666666666667
 20
11.0076512455516
  0
VERTEX
  8
1
 10
-21.9666666666667
 20
11.0076512455516
  0
VERTEX
  8
1
 10
-21.9666666666667
 20
-2.9923487544484
  0
VERTEX
  8
1
 10
-17.9666666666667
 20
-2.9923487544484
  0
SEQEND
  8
1
  0
POLYLINE
  8
1
 66
1
  0
VERTEX
  8
1
 10
2.03333333333333
 20
-10.9923487544484
  0
VERTEX
  8
1
 10
2.03333333333333
 20
1.0076512455516
  0
SEQEND
  8
1
  0
POLYLINE
  8
1
 66
1
  0
VERTEX
  8
1
 10
6.03333333333333
 20
-10.9923487544484
  0
VERTEX
  8
1
 10
6.03333333333333
 20
1.0076512455516
  0
SEQEND
  8
1
  0
POLYLINE
  8
1
 66
1
  0
VERTEX
  8
1
 10
18.0333333333333
 20
-2.9923487544484
  0
VERTEX
  8
1
 10
6.03333333333333
 20
-2.9923487544484
  0
SEQEND
  8
1
  0
POLYLINE
  8
1
 66
1
  0
VERTEX
  8
1
 10
22.0333333333333
 20
-4.9923487544484
  0
VERTEX
  8
1
 10
4.03333333333333
 20
-4.9923487544484
  0
VERTEX
  8
1
 10
2.03333333333333
 20
-2.9923487544484
  0
SEQEND
  8
1
  0
POLYLINE
  8
1
 66
1
  0
VERTEX
  8
1
 10
14.0333333333333
 20
-10.9923487544484
  0
VERTEX
  8
1
 10
14.0333333333333
 20
11.0076512455516
  0
VERTEX
  8
1
 10
2.03333333333333
 20
11.0076512455516
  0
SEQEND
  8
1
  0
POLYLINE
  8
1
 66
1
  0
VERTEX
  8
1
 10
13.0333333333333
 20
3.0076512455516
  0
VERTEX
  8
1
 10
12.6166666666666
 20
1.0076512455516
  0
VERTEX
  8
1
 10
11.7833333333333
 20
5.0076512455516
  0
VERTEX
  8
1
 10
10.95
 20
1.0076512455516
  0
VERTEX
  8
1
 10
10.1166666666666
 20
5.0076512455516
  0
VERTEX
  8
1
 10
9.28333333333333
 20
1.0076512455516
  0
VERTEX
  8
1
 10
8.45000000000003
 20
5.0076512455516
  0
VERTEX
  8
1
 10
8.03333333333333
 20
3.0076512455516
  0
SEQEND
  8
1
  0
LINE
  8
1
 10
-9.96666666666667
 20
-2.9923487544484
 11
-12.4666666666667
 21
-2.9923487544484
  0
POLYLINE
  8
1
 66
1
  0
VERTEX
  8
1
 10
-13
 20
-0.992348754448404
  0
VERTEX
  8
1
 10
-15
 20
-2.9923487544484
  0
VERTEX
  8
1
 10
-13
 20
-4.9923487544484
  0
SEQEND
  8
1
  0
CIRCLE
  8
1
 10
-13.4666666666667
 20
-2.9923487544484
 40
1
  0
LINE
  8
1
 10
-14.9666666666667
 20
-2.9923487544484
 11
-17.9666666666667
 21
-2.9923487544484
  0
LINE
  8
1
 10
-9.96666666666667
 20
-2.9923487544484
 11
-7.46666666666667
 21
-2.9923487544484
  0
POLYLINE
  8
1
 66
1
  0
VERTEX
  8
1
 10
-6.93333333333334
 20
-4.9923487544484
  0
VERTEX
  8
1
 10
-4.93333333333333
 20
-2.9923487544484
  0
VERTEX
  8
1
 10
-6.93333333333334
 20
-0.992348754448404
  0
SEQEND
  8
1
  0
CIRCLE
  8
1
 10
-6.46666666666667
 20
-2.9923487544484
 40
1
  0
LINE
  8
1
 10
-4.96666666666667
 20
-2.9923487544484
 11
-1.96666666666667
 21
-2.9923487544484
  0
LINE
  8
1
 10
-9.96666666666667
 20
-2.9923487544484
 11
-9.96666666666667
 21
-5.45901542111507
  0
POLYLINE
  8
1
 66
1
  0
VERTEX
  8
1
 10
-11.9666666666667
 20
-5.9923487544484
  0
VERTEX
  8
1
 10
-9.96666666666667
 20
-7.9923487544484
  0
VERTEX
  8
1
 10
-7.96666666666667
 20
-5.9923487544484
  0
SEQEND
  8
1
  0
CIRCLE
  8
1
 10
-9.96666666666667
 20
-6.45901542111507
 40
1
  0
LINE
  8
1
 10
-9.96666666666667
 20
-7.95901542111507
 11
-9.96666666666667
 21
-10.9590154211151
  0
LINE
  8
1
 10
-17.9666666666667
 20
1.0076512455516
 11
-15.9666666666667
 21
5.0076512455516
  0
POLYLINE
  8
1
 66
1
  0
VERTEX
  8
1
 10
-19.9666666666667
 20
5.0076512455516
  0
VERTEX
  8
1
 10
-13.9666666666667
 20
5.0076512455516
  0
VERTEX
  8
1
 10
-13.9666666666667
 20
1.0076512455516
  0
VERTEX
  8
1
 10
-19.9666666666667
 20
1.0076512455516
  0
VERTEX
  8
1
 10
-19.9666666666667
 20
5.0076512455516
  0
SEQEND
  8
1
  0
LINE
  8
1
 10
-13.9666666666667
 20
5.0076512455516
 11
-13.9666666666667
 21
1.0076512455516
  0
POLYLINE
  8
1
 66
1
  0
VERTEX
  8
1
 10
-13.9666666666667
 20
5.0076512455516
  0
VERTEX
  8
1
 10
-7.96666666666667
 20
5.0076512455516
  0
VERTEX
  8
1
 10
-7.96666666666667
 20
1.0076512455516
  0
VERTEX
  8
1
 10
-13.9666666666667
 20
1.0076512455516
  0
VERTEX
  8
1
 10
-13.9666666666667
 20
5.0076512455516
  0
SEQEND
  8
1
  0
LINE
  8
1
 10
-13.9666666666667
 20
5.0076512455516
 11
-10.5025650515289
 21
3.0076512455516
  0
LINE
  8
1
 10
-13.9666666666667
 20
1.0076512455516
 11
-10.5025650515289
 21
3.0076512455516
  0
LINE
  8
1
 10
2.03333333333333
 20
1.0076512455516
 11
2.03333333333333
 21
3.0076512455516
  0
INSERT
  8
1
  2
LCBP1
 10
2.03333333333333
 20
3.0076512455516
 50
90
  0
POLYLINE
  8
1
 66
1
  0
VERTEX
  8
1
 10
0.0333333333333314
 20
9.0076512455516
  0
VERTEX
  8
1
 10
8.03333333333333
 20
9.0076512455516
  0
VERTEX
  8
1
 10
8.03333333333333
 20
1.0076512455516
  0
VERTEX
  8
1
 10
0.0333333333333314
 20
1.0076512455516
  0
VERTEX
  8
1
 10
0.0333333333333314
 20
9.0076512455516
  0
SEQEND
  8
1
  0
LINE
  8
1
 10
2.03333333333333
 20
9.0076512455516
 11
6.03333333333333
 21
1.0076512455516
  0
INSERT
  8
1
  2
LCA1
 10
6.03333333333333
 20
1.0076512455516
 50
-63.434948822922
  0
POLYLINE
  8
1
 66
1
  0
VERTEX
  8
1
 10
-7.96666666666667
 20
9.0076512455516
  0
VERTEX
  8
1
 10
0.0333333333333314
 20
9.0076512455516
  0
VERTEX
  8
1
 10
0.0333333333333314
 20
1.0076512455516
  0
VERTEX
  8
1
 10
-7.96666666666667
 20
1.0076512455516
  0
VERTEX
  8
1
 10
-7.96666666666667
 20
9.0076512455516
  0
SEQEND
  8
1
  0
LINE
  8
1
 10
-1.96666666666667
 20
1.0076512455516
 11
-1.96666666666667
 21
3.0076512455516
  0
INSERT
  8
1
  2
LCBP1
 10
-1.96666666666667
 20
3.0076512455516
 50
90
  0
LINE
  8
1
 10
-5.96666666666667
 20
1.0076512455516
 11
-5.96666666666667
 21
9.0076512455516
  0
INSERT
  8
1
  2
LCA1
 10
-5.96666666666667
 20
9.0076512455516
 50
90
  0
CIRCLE
  8
CONNECTIONS
 10
-19.9666666666667
 20
3.0076512455516
 40
0
  0
CIRCLE
  8
CONNECTIONS
 10
-1.96666666666667
 20
15.0076512455516
 40
0
  0
CIRCLE
  8
CONNECTIONS
 10
2.03333333333333
 20
15.0076512455516
 40
0
  0
CIRCLE
  8
CONNECTIONS
 10
18.0333333333333
 20
15.0076512455516
 40
0
  0
CIRCLE
  8
CONNECTIONS
 10
22.0333333333333
 20
15.0076512455516
 40
0
  0
CIRCLE
  8
CONNECTIONS
 10
-9.96666666666667
 20
-15.0409845788849
 40
0
  0
CIRCLE
  8
CONNECTIONS
 10
2.03333333333333
 20
-14.9923487544484
 40
0
  0
CIRCLE
  8
CONNECTIONS
 10
6.03333333333333
 20
-14.9923487544484
 40
0
  0
CIRCLE
  8
CONNECTIONS
 10
14.0333333333333
 20
-14.9923487544484
 40
0
  0
ENDBLK
  8
0
  0
ENDSEC
  0
SECTION
  2
ENTITIES
  0
INSERT
  8
1
  2
B47716_00995232
 10
24
 20
15.0409845788849
  0
ENDSEC
  0
EOF
