  0
SECTION
  2
HEADER
  9
$LIMMIN
 10
0
 20
0
  9
$LIMMAX
 10
52.5
 20
74.25
  9
$EXTMIN
 10
0
 20
82
  9
$EXTMAX
 10
0
 20
33.3722326755524
  0
ENDSEC
  0
SECTION
  2
TABLES
  0
TABLE
  2
LTYPE
 70
9
  0
LTYPE
  2
CONTINUOUS
 70
64
  3
Solid line
 72
65
 73
0
 40
0
  0
LTYPE
  2
DASHED
 70
64
  3
__ __ __ __ __ __ __ __ __
 72
65
 73
2
 40
0.75
 49
0.5
 49
-0.25
  0
LTYPE
  2
DOT
 70
64
  3
...........................
 72
65
 73
2
 40
0.25
 49
0
 49
-0.25
  0
LTYPE
  2
DASHDOT
 70
64
  3
__ . __ . __ . __ . __ . __ . 
 72
65
 73
4
 40
1
 49
0.5
 49
-0.25
 49
0
 49
-0.25
  0
ENDTAB
  0
TABLE
  2
LAYER
 70
10
  0
LAYER
  2
1
 70
0
 62
7
  6
CONTINUOUS
  0
LAYER
  2
CONNECTIONS
 70
0
 62
-7
  6
CONTINUOUS
  0
ENDTAB
  0
ENDSEC
  0
SECTION
  2
BLOCKS
  0
BLOCK
  8
0
  2
TRICON
 70
0
 10
0
 20
0
  0
POLYLINE
  8
1
 70
1
 66
1
 40
0.5
 41
0.5
  0
VERTEX
  8
1
 10
-0.25
 20
0
 42
1
  0
VERTEX
  8
1
 10
0.25
 20
0
 42
1
  0
SEQEND
  8
1
  0
ENDBLK
  8
0
  0
BLOCK
  8
0
  2
TRICONSMALL
 70
0
 10
0
 20
0
  0
POLYLINE
  8
1
 70
1
 66
1
 40
0.25
 41
0.25
  0
VERTEX
  8
1
 10
-0.125
 20
0
 42
1
  0
VERTEX
  8
1
 10
0.125
 20
0
 42
1
  0
SEQEND
  8
1
  0
ENDBLK
  8
0
  0
BLOCK
  8
0
  2
TRICONCIRCLE
 70
0
 10
0
 20
0
  0
CIRCLE
  8
1
 10
0
 20
0
 40
0.5
  0
ENDBLK
  8
0
  0
BLOCK
  8
0
  2
LCBP0
 70
0
 10
0
 20
0
  0
LINE
  8
1
 10
0
 20
-0.46875
 11
0
 21
0.46875
  0
ENDBLK
  8
0
  0
BLOCK
  8
0
  2
LCBP1
 70
0
 10
0
 20
0
  0
LINE
  8
1
 10
0
 20
-0.625
 11
0
 21
0.625
  0
ENDBLK
  8
0
  0
BLOCK
  8
0
  2
LCBP2
 70
0
 10
0
 20
0
  0
LINE
  8
1
 10
0
 20
-0.9375
 11
0
 21
0.9375
  0
ENDBLK
  8
0
  0
BLOCK
  8
0
  2
LCA1
 70
0
 10
0
 20
0
  0
SOLID
  8
1
 62
7 
 10
0
 20
0
 11
-1.4
 21
-0.275
 12
-1.4
 22
0.275
 13
-1.4
 23
0.275
  0
ENDBLK
  8
0
  0
BLOCK
  8
0
  2
LCA2
 70
0
 10
0
 20
0
  0
SOLID
  8
1
 62
7 
 10
0
 20
0
 11
-1.65
 21
-0.525
 12
-1.65
 22
0.525
 13
-1.65
 23
0.525
  0
ENDBLK
  8
0
  0
BLOCK
  8
0
  2
LCA3
 70
0
 10
0
 20
0
  0
SOLID
  8
1
 62
7 
 10
0
 20
0
 11
-2.15
 21
-1.15
 12
-2.15
 22
1.15
 13
-2.15
 23
1.15
  0
ENDBLK
  8
0
  0
BLOCK
  8
0
  2
LCA1R
 70
0
 10
0
 20
0
  0
SOLID
  8
1
 62
7 
 10
0
 20
0
 11
1.4
 21
-0.275
 12
1.4
 22
0.275
 13
1.4
 23
0.275
  0
ENDBLK
  8
0
  0
BLOCK
  8
0
  2
LCA2R
 70
0
 10
0
 20
0
  0
SOLID
  8
1
 62
7 
 10
0
 20
0
 11
1.65
 21
-0.525
 12
1.65
 22
0.525
 13
1.65
 23
0.525
  0
ENDBLK
  8
0
  0
BLOCK
  8
0
  2
LCA3R
 70
0
 10
0
 20
0
  0
SOLID
  8
1
 62
7 
 10
0
 20
0
 11
2.15
 21
-1.15
 12
2.15
 22
1.15
 13
2.15
 23
1.15
  0
ENDBLK
  8
0
  0
BLOCK
  8
0
  2
B115447_00995215
 70
0
 10
0
 20
0
  0
POLYLINE
  8
1
 66
1
  0
VERTEX
  8
1
 10
-41
 20
12.6861162980397
  0
VERTEX
  8
1
 10
41
 20
12.6861162980397
  0
VERTEX
  8
1
 10
41
 20
-7.31388370196025
  0
VERTEX
  8
1
 10
-41
 20
-7.31388370196025
  0
VERTEX
  8
1
 10
-41
 20
12.6861162980397
  0
SEQEND
  8
1
  0
LINE
  8
1
 10
-15
 20
12.6861162980398
 11
-15
 21
8.68611629803975
  0
LINE
  8
1
 10
25
 20
12.6861162980398
 11
25
 21
8.68611629803975
  0
LINE
  8
1
 10
37
 20
0.686116298039754
 11
37
 21
-7.31388370196025
  0
LINE
  8
1
 10
25
 20
0.686116298039754
 11
25
 21
-7.31388370196025
  0
LINE
  8
1
 10
-11
 20
0.686116298039754
 11
-11
 21
-7.31388370196025
  0
LINE
  8
1
 10
-15
 20
0.686116298039754
 11
-15
 21
-7.31388370196025
  0
LINE
  8
1
 10
-31
 20
0.686116298039754
 11
-31
 21
-7.31388370196025
  0
POLYLINE
  8
1
 70
1
 66
1
 40
0.5
 41
0.5
  0
VERTEX
  8
1
 10
-3.25
 20
-1.31388370196025
 42
1
  0
VERTEX
  8
1
 10
-2.75
 20
-1.31388370196025
 42
1
  0
SEQEND
  8
1
  0
POLYLINE
  8
1
  6
DOT
 66
1
  0
VERTEX
  8
1
 10
-11
 20
0.686116298039757
  0
VERTEX
  8
1
 10
-7
 20
-3.31388370196025
  0
VERTEX
  8
1
 10
29
 20
-3.31388370196025
  0
VERTEX
  8
1
 10
29
 20
0.686116298039757
  0
SEQEND
  8
1
  0
LINE
  8
1
  6
DOT
 10
-3
 20
0.686116298039754
 11
-3
 21
-1.31388370196025
  0
POLYLINE
  8
1
  6
DOT
 66
1
  0
VERTEX
  8
1
 10
-31
 20
0.686116298039757
  0
VERTEX
  8
1
 10
-29
 20
-1.31388370196024
  0
VERTEX
  8
1
 10
9
 20
-1.31388370196024
  0
VERTEX
  8
1
 10
9
 20
0.686116298039757
  0
SEQEND
  8
1
  0
TEXT
  8
1
 40
2.475
 41
0.75
  1
(5/3)
  7
STANDARD
 73
2
 10
-9.18234316507975
 20
-14.3138837019602
 11
-9.18234316507975
 21
-14.3138837019602
  0
TEXT
  8
1
 40
2.475
 41
0.75
  1
(1)
  7
STANDARD
 73
2
 10
-20.3823431650798
 20
-14.3138837019602
 11
-20.3823431650798
 21
-14.3138837019602
  0
TEXT
  8
1
 40
2.475
 41
0.75
  1
(1)
  7
STANDARD
 73
2
 10
19.7176568349202
 20
-14.3138837019602
 11
19.7176568349202
 21
-14.3138837019602
  0
TEXT
  8
1
 40
2.475
 41
0.75
  1
(14)
  7
STANDARD
 73
2
 10
-40.3823431650797
 20
-14.3138837019602
 11
-40.3823431650797
 21
-14.3138837019602
  0
TEXT
  8
1
 40
2.475
 41
0.75
  1
30
  7
STANDARD
 72
2
 73
2
 10
7.48234316507975
 20
7.58611629803976
 11
7.48234316507975
 21
7.58611629803976
  0
TEXT
  8
1
 40
2.475
 41
0.75
  1
54
  7
STANDARD
 72
2
 73
2
 10
-32.6176568349202
 20
7.58611629803976
 11
-32.6176568349202
 21
7.58611629803976
  0
TEXT
  8
1
 40
2.475
 41
0.75
  1
30/54
  7
STANDARD
 72
2
 10
-32.0847783406576
 20
-11.9763830661774
 11
-32.0847783406576
 21
-11.9763830661774
  0
TEXT
  8
1
 40
2.475
 41
0.75
  1
5
  7
STANDARD
 72
2
 10
-16.0847783406575
 20
-11.9763830661774
 11
-16.0847783406575
 21
-11.9763830661774
  0
TEXT
  8
1
 40
2.475
 41
0.75
  1
12
  7
STANDARD
 72
2
 10
35.8152216593424
 20
-11.9763830661774
 11
35.8152216593424
 21
-11.9763830661774
  0
TEXT
  8
1
 40
2.475
 41
0.75
  1
3
  7
STANDARD
 72
2
 10
23.8152216593424
 20
-11.9763830661774
 11
23.8152216593424
 21
-11.9763830661774
  0
TEXT
  8
1
 40
2.475
 41
0.75
  1
1
  7
STANDARD
 10
-9.43475240071614
 20
-11.9763830661774
  0
TEXT
  8
1
 40
2.475
 41
0.75
  1
2
  7
STANDARD
 72
2
 10
23.9152088994433
 20
13.9236162980398
 11
23.9152088994433
 21
13.9236162980398
  0
TEXT
  8
1
 40
2.475
 41
0.75
  1
4
  7
STANDARD
 72
2
 10
-16.0847783406575
 20
13.9236162980398
 11
-16.0847783406575
 21
13.9236162980398
  0
LINE
  8
1
 10
25
 20
16.6861162980398
 11
25
 21
12.6861162980398
  0
LINE
  8
1
 10
-15
 20
16.6861162980398
 11
-15
 21
12.6861162980398
  0
LINE
  8
1
 10
37
 20
-7.31388370196025
 11
37
 21
-11.3138837019602
  0
LINE
  8
1
 10
25
 20
-7.31388370196025
 11
25
 21
-11.3138837019602
  0
LINE
  8
1
 10
-11
 20
-7.31388370196025
 11
-11
 21
-11.3138837019602
  0
LINE
  8
1
 10
-15
 20
-7.31388370196025
 11
-15
 21
-11.3138837019602
  0
LINE
  8
1
 10
-31
 20
-7.31388370196025
 11
-31
 21
-11.3138837019602
  0
LINE
  8
1
 10
34
 20
2.70500217310553
 11
31
 21
2.70500217310553
  0
LINE
  8
1
 10
34
 20
2.70500217310553
 11
37
 21
0.686116298039754
  0
LINE
  8
1
 10
37
 20
4.70500217310553
 11
34
 21
2.70500217310553
  0
POLYLINE
  8
1
 66
1
  0
VERTEX
  8
1
 10
31
 20
4.70500217310553
  0
VERTEX
  8
1
 10
37
 20
4.70500217310553
  0
VERTEX
  8
1
 10
37
 20
0.686116298039757
  0
VERTEX
  8
1
 10
31
 20
0.686116298039757
  0
VERTEX
  8
1
 10
31
 20
4.70500217310553
  0
SEQEND
  8
1
  0
LINE
  8
1
 10
-6
 20
2.70500217310553
 11
-9
 21
2.70500217310553
  0
LINE
  8
1
 10
-6
 20
2.70500217310553
 11
-3
 21
0.686116298039754
  0
LINE
  8
1
 10
-3
 20
4.70500217310553
 11
-6
 21
2.70500217310553
  0
POLYLINE
  8
1
 66
1
  0
VERTEX
  8
1
 10
-9
 20
4.70500217310553
  0
VERTEX
  8
1
 10
-3
 20
4.70500217310553
  0
VERTEX
  8
1
 10
-3
 20
0.686116298039757
  0
VERTEX
  8
1
 10
-9
 20
0.686116298039757
  0
VERTEX
  8
1
 10
-9
 20
4.70500217310553
  0
SEQEND
  8
1
  0
LINE
  8
1
 10
5
 20
0.686116298039754
 11
7
 21
4.68611629803975
  0
POLYLINE
  8
1
 66
1
  0
VERTEX
  8
1
 10
3
 20
4.68611629803976
  0
VERTEX
  8
1
 10
9
 20
4.68611629803976
  0
VERTEX
  8
1
 10
9
 20
0.686116298039757
  0
VERTEX
  8
1
 10
3
 20
0.686116298039757
  0
VERTEX
  8
1
 10
3
 20
4.68611629803976
  0
SEQEND
  8
1
  0
LINE
  8
1
 10
-35
 20
0.686116298039754
 11
-33
 21
4.68611629803975
  0
POLYLINE
  8
1
 66
1
  0
VERTEX
  8
1
 10
-37
 20
4.68611629803976
  0
VERTEX
  8
1
 10
-31
 20
4.68611629803976
  0
VERTEX
  8
1
 10
-31
 20
0.686116298039757
  0
VERTEX
  8
1
 10
-37
 20
0.686116298039757
  0
VERTEX
  8
1
 10
-37
 20
4.68611629803976
  0
SEQEND
  8
1
  0
LINE
  8
1
 10
11.9999500595413
 20
2.68611629803975
 11
8.99995005954131
 21
0.686116298039754
  0
LINE
  8
1
 10
8.99995005954131
 20
4.68611629803975
 11
11.9999500595413
 21
2.68611629803975
  0
POLYLINE
  8
1
 66
1
  0
VERTEX
  8
1
 10
8.99995005954131
 20
4.68611629803976
  0
VERTEX
  8
1
 10
14.9999500595413
 20
4.68611629803976
  0
VERTEX
  8
1
 10
14.9999500595413
 20
0.686116298039757
  0
VERTEX
  8
1
 10
8.99995005954131
 20
0.686116298039757
  0
VERTEX
  8
1
 10
8.99995005954131
 20
4.68611629803976
  0
SEQEND
  8
1
  0
LINE
  8
1
 10
-28
 20
2.68611629803975
 11
-31
 21
0.686116298039754
  0
LINE
  8
1
 10
-31
 20
4.68611629803975
 11
-28
 21
2.68611629803975
  0
POLYLINE
  8
1
 66
1
  0
VERTEX
  8
1
 10
-31
 20
4.68611629803976
  0
VERTEX
  8
1
 10
-25
 20
4.68611629803976
  0
VERTEX
  8
1
 10
-25
 20
0.686116298039757
  0
VERTEX
  8
1
 10
-31
 20
0.686116298039757
  0
VERTEX
  8
1
 10
-31
 20
4.68611629803976
  0
SEQEND
  8
1
  0
LINE
  8
1
 10
17
 20
0.686116298039754
 11
17
 21
2.68611629803975
  0
INSERT
  8
1
  2
LCBP1
 10
17
 20
2.68611629803975
 50
90
  0
POLYLINE
  8
1
 66
1
  0
VERTEX
  8
1
 10
15
 20
8.68611629803975
  0
VERTEX
  8
1
 10
23
 20
8.68611629803975
  0
VERTEX
  8
1
 10
23
 20
0.686116298039749
  0
VERTEX
  8
1
 10
15
 20
0.686116298039749
  0
VERTEX
  8
1
 10
15
 20
8.68611629803975
  0
SEQEND
  8
1
  0
LINE
  8
1
 10
17
 20
8.68611629803975
 11
21
 21
0.686116298039754
  0
INSERT
  8
1
  2
LCA1
 10
21
 20
0.686116298039754
 50
-63.434948822922
  0
LINE
  8
1
 10
-15
 20
0.686116298039754
 11
-15
 21
2.68611629803975
  0
INSERT
  8
1
  2
LCBP1
 10
-15
 20
2.68611629803975
 50
90
  0
POLYLINE
  8
1
 66
1
  0
VERTEX
  8
1
 10
-17
 20
8.68611629803975
  0
VERTEX
  8
1
 10
-9
 20
8.68611629803975
  0
VERTEX
  8
1
 10
-9
 20
0.686116298039749
  0
VERTEX
  8
1
 10
-17
 20
0.686116298039749
  0
VERTEX
  8
1
 10
-17
 20
8.68611629803975
  0
SEQEND
  8
1
  0
LINE
  8
1
 10
-15
 20
8.68611629803975
 11
-11
 21
0.686116298039754
  0
INSERT
  8
1
  2
LCA1
 10
-11
 20
0.686116298039754
 50
-63.434948822922
  0
POLYLINE
  8
1
 66
1
  0
VERTEX
  8
1
 10
23
 20
8.68611629803975
  0
VERTEX
  8
1
 10
31
 20
8.68611629803975
  0
VERTEX
  8
1
 10
31
 20
0.686116298039749
  0
VERTEX
  8
1
 10
23
 20
0.686116298039749
  0
VERTEX
  8
1
 10
23
 20
8.68611629803975
  0
SEQEND
  8
1
  0
LINE
  8
1
 10
29
 20
0.686116298039754
 11
29
 21
2.68611629803975
  0
INSERT
  8
1
  2
LCBP1
 10
29
 20
2.68611629803975
 50
90
  0
LINE
  8
1
 10
25
 20
0.686116298039754
 11
25
 21
8.68611629803975
  0
INSERT
  8
1
  2
LCA1
 10
25
 20
8.68611629803975
 50
90
  0
POLYLINE
  8
1
 66
1
  0
VERTEX
  8
1
 10
-25
 20
8.68611629803975
  0
VERTEX
  8
1
 10
-17
 20
8.68611629803975
  0
VERTEX
  8
1
 10
-17
 20
0.686116298039749
  0
VERTEX
  8
1
 10
-25
 20
0.686116298039749
  0
VERTEX
  8
1
 10
-25
 20
8.68611629803975
  0
SEQEND
  8
1
  0
LINE
  8
1
 10
-19
 20
0.686116298039754
 11
-19
 21
2.68611629803975
  0
INSERT
  8
1
  2
LCBP1
 10
-19
 20
2.68611629803975
 50
90
  0
LINE
  8
1
 10
-23
 20
0.686116298039754
 11
-23
 21
8.68611629803975
  0
INSERT
  8
1
  2
LCA1
 10
-23
 20
8.68611629803975
 50
90
  0
CIRCLE
  8
CONNECTIONS
 10
-15
 20
16.6861162980398
 40
0
  0
CIRCLE
  8
CONNECTIONS
 10
-11
 20
-11.3138837019602
 40
0
  0
CIRCLE
  8
CONNECTIONS
 10
24.9999872401008
 20
16.6861162980398
 40
0
  0
CIRCLE
  8
CONNECTIONS
 10
25
 20
-11.3138837019602
 40
0
  0
CIRCLE
  8
CONNECTIONS
 10
-31
 20
-11.3138837019602
 40
0
  0
CIRCLE
  8
CONNECTIONS
 10
-15
 20
-11.3138837019602
 40
0
  0
CIRCLE
  8
CONNECTIONS
 10
37
 20
-11.3138837019602
 40
0
  0
CIRCLE
  8
CONNECTIONS
 10
3
 20
2.68611629803975
 40
0
  0
CIRCLE
  8
CONNECTIONS
 10
-37
 20
2.68611629803975
 40
0
  0
ENDBLK
  8
0
  0
ENDSEC
  0
SECTION
  2
ENTITIES
  0
INSERT
  8
1
  2
B115447_00995215
 10
41
 20
16.6861163775126
  0
ENDSEC
  0
EOF
