  0
SECTION
  2
HEADER
  9
$LIMMIN
 10
0
 20
0
  9
$LIMMAX
 10
52.5
 20
74.25
  9
$EXTMIN
 10
0
 20
86
  9
$EXTMAX
 10
0
 20
34.3722326755524
  0
ENDSEC
  0
SECTION
  2
TABLES
  0
TABLE
  2
LTYPE
 70
9
  0
LTYPE
  2
CONTINUOUS
 70
64
  3
Solid line
 72
65
 73
0
 40
0
  0
LTYPE
  2
DASHED
 70
64
  3
__ __ __ __ __ __ __ __ __
 72
65
 73
2
 40
0.75
 49
0.5
 49
-0.25
  0
LTYPE
  2
DOT
 70
64
  3
...........................
 72
65
 73
2
 40
0.25
 49
0
 49
-0.25
  0
LTYPE
  2
DASHDOT
 70
64
  3
__ . __ . __ . __ . __ . __ . 
 72
65
 73
4
 40
1
 49
0.5
 49
-0.25
 49
0
 49
-0.25
  0
ENDTAB
  0
TABLE
  2
LAYER
 70
10
  0
LAYER
  2
1
 70
0
 62
7
  6
CONTINUOUS
  0
LAYER
  2
CONNECTIONS
 70
0
 62
-7
  6
CONTINUOUS
  0
ENDTAB
  0
ENDSEC
  0
SECTION
  2
BLOCKS
  0
BLOCK
  8
0
  2
TRICON
 70
0
 10
0
 20
0
  0
POLYLINE
  8
1
 70
1
 66
1
 40
0.5
 41
0.5
  0
VERTEX
  8
1
 10
-0.25
 20
0
 42
1
  0
VERTEX
  8
1
 10
0.25
 20
0
 42
1
  0
SEQEND
  8
1
  0
ENDBLK
  8
0
  0
BLOCK
  8
0
  2
TRICONSMALL
 70
0
 10
0
 20
0
  0
POLYLINE
  8
1
 70
1
 66
1
 40
0.25
 41
0.25
  0
VERTEX
  8
1
 10
-0.125
 20
0
 42
1
  0
VERTEX
  8
1
 10
0.125
 20
0
 42
1
  0
SEQEND
  8
1
  0
ENDBLK
  8
0
  0
BLOCK
  8
0
  2
TRICONCIRCLE
 70
0
 10
0
 20
0
  0
CIRCLE
  8
1
 10
0
 20
0
 40
0.5
  0
ENDBLK
  8
0
  0
BLOCK
  8
0
  2
LCBP0
 70
0
 10
0
 20
0
  0
LINE
  8
1
 10
0
 20
-0.46875
 11
0
 21
0.46875
  0
ENDBLK
  8
0
  0
BLOCK
  8
0
  2
LCBP1
 70
0
 10
0
 20
0
  0
LINE
  8
1
 10
0
 20
-0.625
 11
0
 21
0.625
  0
ENDBLK
  8
0
  0
BLOCK
  8
0
  2
LCBP2
 70
0
 10
0
 20
0
  0
LINE
  8
1
 10
0
 20
-0.9375
 11
0
 21
0.9375
  0
ENDBLK
  8
0
  0
BLOCK
  8
0
  2
LCA1
 70
0
 10
0
 20
0
  0
SOLID
  8
1
 62
7 
 10
0
 20
0
 11
-1.4
 21
-0.275
 12
-1.4
 22
0.275
 13
-1.4
 23
0.275
  0
ENDBLK
  8
0
  0
BLOCK
  8
0
  2
LCA2
 70
0
 10
0
 20
0
  0
SOLID
  8
1
 62
7 
 10
0
 20
0
 11
-1.65
 21
-0.525
 12
-1.65
 22
0.525
 13
-1.65
 23
0.525
  0
ENDBLK
  8
0
  0
BLOCK
  8
0
  2
LCA3
 70
0
 10
0
 20
0
  0
SOLID
  8
1
 62
7 
 10
0
 20
0
 11
-2.15
 21
-1.15
 12
-2.15
 22
1.15
 13
-2.15
 23
1.15
  0
ENDBLK
  8
0
  0
BLOCK
  8
0
  2
LCA1R
 70
0
 10
0
 20
0
  0
SOLID
  8
1
 62
7 
 10
0
 20
0
 11
1.4
 21
-0.275
 12
1.4
 22
0.275
 13
1.4
 23
0.275
  0
ENDBLK
  8
0
  0
BLOCK
  8
0
  2
LCA2R
 70
0
 10
0
 20
0
  0
SOLID
  8
1
 62
7 
 10
0
 20
0
 11
1.65
 21
-0.525
 12
1.65
 22
0.525
 13
1.65
 23
0.525
  0
ENDBLK
  8
0
  0
BLOCK
  8
0
  2
LCA3R
 70
0
 10
0
 20
0
  0
SOLID
  8
1
 62
7 
 10
0
 20
0
 11
2.15
 21
-1.15
 12
2.15
 22
1.15
 13
2.15
 23
1.15
  0
ENDBLK
  8
0
  0
BLOCK
  8
0
  2
B96913_00992995
 70
0
 10
0
 20
0
  0
POLYLINE
  8
1
 66
1
  0
VERTEX
  8
1
 10
-43
 20
13.1861162980397
  0
VERTEX
  8
1
 10
43
 20
13.1861162980397
  0
VERTEX
  8
1
 10
43
 20
-6.81388370196025
  0
VERTEX
  8
1
 10
-43
 20
-6.81388370196025
  0
VERTEX
  8
1
 10
-43
 20
13.1861162980397
  0
SEQEND
  8
1
  0
LINE
  8
1
 10
27
 20
9.18611629803975
 11
27
 21
13.1861162980398
  0
LINE
  8
1
 10
-17
 20
9.18611629803975
 11
-17
 21
13.1861162980398
  0
LINE
  8
1
 10
31
 20
1.18611629803975
 11
31
 21
-6.81388370196025
  0
LINE
  8
1
 10
-13
 20
1.18611629803975
 11
-13
 21
-6.81388370196025
  0
LINE
  8
1
 10
-17
 20
1.18611629803975
 11
-17
 21
-6.81388370196025
  0
LINE
  8
1
 10
-33
 20
1.18611629803975
 11
-33
 21
-6.81388370196025
  0
LINE
  8
1
  6
DOT
 10
11
 20
-2.81388370196025
 11
-29
 21
-2.81388370196025
  0
LINE
  8
1
  6
DOT
 10
-15
 20
-0.813883701960246
 11
27
 21
-0.813883701960246
  0
LINE
  8
1
  6
DOT
 10
11
 20
1.18611629803975
 11
11
 21
-2.81388370196025
  0
LINE
  8
1
  6
DOT
 10
39
 20
-0.813883701960246
 11
39
 21
1.18611629803975
  0
LINE
  8
1
  6
DOT
 10
27
 20
-0.813883701960246
 11
39
 21
-0.813883701960246
  0
POLYLINE
  8
1
 70
1
 66
1
 40
0.6
 41
0.6
  0
VERTEX
  8
1
 10
26.7
 20
-0.813883701960246
 42
1
  0
VERTEX
  8
1
 10
27.3
 20
-0.813883701960246
 42
1
  0
SEQEND
  8
1
  0
LINE
  8
1
  6
DOT
 10
27
 20
-0.813883701960246
 11
27
 21
1.18611629803975
  0
LINE
  8
1
  6
DOT
 10
-29
 20
-2.81388370196025
 11
-33
 21
1.18611629803975
  0
LINE
  8
1
  6
DOT
 10
-5
 20
1.18611629803975
 11
-5
 21
-0.813883701960246
  0
POLYLINE
  8
1
 70
1
 66
1
 40
0.6
 41
0.6
  0
VERTEX
  8
1
 10
-5.3
 20
-0.813883701960246
 42
1
  0
VERTEX
  8
1
 10
-4.7
 20
-0.813883701960246
 42
1
  0
SEQEND
  8
1
  0
LINE
  8
1
  6
DOT
 10
-17
 20
1.18611629803975
 11
-15
 21
-0.813883701960246
  0
TEXT
  8
1
 40
2.475
 41
0.75
  1
(14)
  7
STANDARD
 73
2
 10
-42.9323431650798
 20
-14.8138837019602
 11
-42.9323431650798
 21
-14.8138837019602
  0
TEXT
  8
1
 40
2.475
 41
0.75
  1
12
  7
STANDARD
 72
2
 73
2
 10
8.03234316507976
 20
8.08611629803976
 11
8.03234316507976
 21
8.08611629803976
  0
TEXT
  8
1
 40
2.475
 41
0.75
  1
14
  7
STANDARD
 72
2
 73
2
 10
-36.0676568349203
 20
8.08611629803976
 11
-36.0676568349203
 21
8.08611629803976
  0
TEXT
  8
1
 40
2.475
 41
0.75
  1
12/14
  7
STANDARD
 72
2
 10
-33.4469437189438
 20
-11.5822795504635
 11
-33.4469437189438
 21
-11.5822795504635
  0
TEXT
  8
1
 40
2.475
 41
0.75
  1
1
  7
STANDARD
 10
-20.5630029522666
 20
-11.5963148010746
  0
TEXT
  8
1
 40
2.475
 41
0.75
  1
5
  7
STANDARD
 10
-12.5630029522666
 20
-11.5963148010746
  0
TEXT
  8
1
 40
2.475
 41
0.75
  1
3
  7
STANDARD
 72
2
 10
35
 20
-11.5763837019602
 11
35
 21
-11.5763837019602
  0
TEXT
  8
1
 40
2.475
 41
0.75
  1
2
  7
STANDARD
 72
2
 73
3
 10
27
 20
16.5673662980398
 11
27
 21
16.5673662980398
  0
TEXT
  8
1
 40
2.475
 41
0.75
  1
4
  7
STANDARD
 72
2
 73
3
 10
-17
 20
16.5673662980398
 11
-17
 21
16.5673662980398
  0
LINE
  8
1
 10
27
 20
13.1861162980398
 11
27
 21
17.1861162980398
  0
LINE
  8
1
 10
-17
 20
13.1861162980398
 11
-17
 21
17.1861162980398
  0
LINE
  8
1
 10
31
 20
-6.81388370196025
 11
31
 21
-10.8138837019602
  0
LINE
  8
1
 10
-13
 20
-6.81388370196025
 11
-13
 21
-10.8138837019602
  0
LINE
  8
1
 10
-17
 20
-6.81388370196025
 11
-17
 21
-10.8138837019602
  0
LINE
  8
1
 10
-33
 20
-6.81388370196025
 11
-33
 21
-10.8138837019602
  0
LINE
  8
1
 10
36
 20
3.20500217310553
 11
33
 21
3.20500217310553
  0
LINE
  8
1
 10
36
 20
3.20500217310553
 11
39
 21
1.18611629803975
  0
LINE
  8
1
 10
39
 20
5.20500217310553
 11
36
 21
3.20500217310553
  0
POLYLINE
  8
1
 66
1
  0
VERTEX
  8
1
 10
33
 20
5.20500217310553
  0
VERTEX
  8
1
 10
39
 20
5.20500217310553
  0
VERTEX
  8
1
 10
39
 20
1.18611629803976
  0
VERTEX
  8
1
 10
33
 20
1.18611629803976
  0
VERTEX
  8
1
 10
33
 20
5.20500217310553
  0
SEQEND
  8
1
  0
LINE
  8
1
 10
-8
 20
3.20500217310553
 11
-11
 21
3.20500217310553
  0
LINE
  8
1
 10
-8
 20
3.20500217310553
 11
-5
 21
1.18611629803975
  0
LINE
  8
1
 10
-5
 20
5.20500217310553
 11
-8
 21
3.20500217310553
  0
POLYLINE
  8
1
 66
1
  0
VERTEX
  8
1
 10
-11
 20
5.20500217310553
  0
VERTEX
  8
1
 10
-5
 20
5.20500217310553
  0
VERTEX
  8
1
 10
-5
 20
1.18611629803976
  0
VERTEX
  8
1
 10
-11
 20
1.18611629803976
  0
VERTEX
  8
1
 10
-11
 20
5.20500217310553
  0
SEQEND
  8
1
  0
LINE
  8
1
 10
7
 20
1.18611629803975
 11
9
 21
5.18611629803975
  0
POLYLINE
  8
1
 66
1
  0
VERTEX
  8
1
 10
5
 20
5.18611629803976
  0
VERTEX
  8
1
 10
11
 20
5.18611629803976
  0
VERTEX
  8
1
 10
11
 20
1.18611629803976
  0
VERTEX
  8
1
 10
5
 20
1.18611629803976
  0
VERTEX
  8
1
 10
5
 20
5.18611629803976
  0
SEQEND
  8
1
  0
LINE
  8
1
 10
-37
 20
1.18611629803975
 11
-35
 21
5.18611629803975
  0
POLYLINE
  8
1
 66
1
  0
VERTEX
  8
1
 10
-39
 20
5.18611629803976
  0
VERTEX
  8
1
 10
-33
 20
5.18611629803976
  0
VERTEX
  8
1
 10
-33
 20
1.18611629803976
  0
VERTEX
  8
1
 10
-39
 20
1.18611629803976
  0
VERTEX
  8
1
 10
-39
 20
5.18611629803976
  0
SEQEND
  8
1
  0
LINE
  8
1
 10
13.9999500595413
 20
3.18611629803975
 11
10.9999500595413
 21
1.18611629803975
  0
LINE
  8
1
 10
10.9999500595413
 20
5.18611629803975
 11
13.9999500595413
 21
3.18611629803975
  0
POLYLINE
  8
1
 66
1
  0
VERTEX
  8
1
 10
10.9999500595413
 20
5.18611629803976
  0
VERTEX
  8
1
 10
16.9999500595413
 20
5.18611629803976
  0
VERTEX
  8
1
 10
16.9999500595413
 20
1.18611629803976
  0
VERTEX
  8
1
 10
10.9999500595413
 20
1.18611629803976
  0
VERTEX
  8
1
 10
10.9999500595413
 20
5.18611629803976
  0
SEQEND
  8
1
  0
LINE
  8
1
 10
-30
 20
3.18611629803975
 11
-33
 21
1.18611629803975
  0
LINE
  8
1
 10
-33
 20
5.18611629803975
 11
-30
 21
3.18611629803975
  0
POLYLINE
  8
1
 66
1
  0
VERTEX
  8
1
 10
-33
 20
5.18611629803976
  0
VERTEX
  8
1
 10
-27
 20
5.18611629803976
  0
VERTEX
  8
1
 10
-27
 20
1.18611629803976
  0
VERTEX
  8
1
 10
-33
 20
1.18611629803976
  0
VERTEX
  8
1
 10
-33
 20
5.18611629803976
  0
SEQEND
  8
1
  0
LINE
  8
1
 10
27
 20
1.18611629803975
 11
27
 21
3.18611629803975
  0
INSERT
  8
1
  2
LCBP1
 10
27
 20
3.18611629803975
 50
90
  0
POLYLINE
  8
1
 66
1
  0
VERTEX
  8
1
 10
25
 20
9.18611629803975
  0
VERTEX
  8
1
 10
33
 20
9.18611629803975
  0
VERTEX
  8
1
 10
33
 20
1.18611629803975
  0
VERTEX
  8
1
 10
25
 20
1.18611629803975
  0
VERTEX
  8
1
 10
25
 20
9.18611629803975
  0
SEQEND
  8
1
  0
LINE
  8
1
 10
27
 20
9.18611629803975
 11
31
 21
1.18611629803975
  0
INSERT
  8
1
  2
LCA1
 10
31
 20
1.18611629803975
 50
-63.434948822922
  0
LINE
  8
1
 10
-17
 20
1.18611629803975
 11
-17
 21
3.18611629803975
  0
INSERT
  8
1
  2
LCBP1
 10
-17
 20
3.18611629803975
 50
90
  0
POLYLINE
  8
1
 66
1
  0
VERTEX
  8
1
 10
-19
 20
9.18611629803975
  0
VERTEX
  8
1
 10
-11
 20
9.18611629803975
  0
VERTEX
  8
1
 10
-11
 20
1.18611629803975
  0
VERTEX
  8
1
 10
-19
 20
1.18611629803975
  0
VERTEX
  8
1
 10
-19
 20
9.18611629803975
  0
SEQEND
  8
1
  0
LINE
  8
1
 10
-17
 20
9.18611629803975
 11
-13
 21
1.18611629803975
  0
INSERT
  8
1
  2
LCA1
 10
-13
 20
1.18611629803975
 50
-63.434948822922
  0
POLYLINE
  8
1
 66
1
  0
VERTEX
  8
1
 10
17
 20
9.18611629803975
  0
VERTEX
  8
1
 10
25
 20
9.18611629803975
  0
VERTEX
  8
1
 10
25
 20
1.18611629803975
  0
VERTEX
  8
1
 10
17
 20
1.18611629803975
  0
VERTEX
  8
1
 10
17
 20
9.18611629803975
  0
SEQEND
  8
1
  0
LINE
  8
1
 10
23
 20
1.18611629803975
 11
23
 21
3.18611629803975
  0
INSERT
  8
1
  2
LCBP1
 10
23
 20
3.18611629803975
 50
90
  0
LINE
  8
1
 10
19
 20
1.18611629803975
 11
19
 21
9.18611629803975
  0
INSERT
  8
1
  2
LCA1
 10
19
 20
9.18611629803975
 50
90
  0
POLYLINE
  8
1
 66
1
  0
VERTEX
  8
1
 10
-27
 20
9.18611629803975
  0
VERTEX
  8
1
 10
-19
 20
9.18611629803975
  0
VERTEX
  8
1
 10
-19
 20
1.18611629803975
  0
VERTEX
  8
1
 10
-27
 20
1.18611629803975
  0
VERTEX
  8
1
 10
-27
 20
9.18611629803975
  0
SEQEND
  8
1
  0
LINE
  8
1
 10
-21
 20
1.18611629803975
 11
-21
 21
3.18611629803975
  0
INSERT
  8
1
  2
LCBP1
 10
-21
 20
3.18611629803975
 50
90
  0
LINE
  8
1
 10
-25
 20
1.18611629803975
 11
-25
 21
9.18611629803975
  0
INSERT
  8
1
  2
LCA1
 10
-25
 20
9.18611629803975
 50
90
  0
CIRCLE
  8
CONNECTIONS
 10
-17
 20
17.1861162980398
 40
0
  0
CIRCLE
  8
CONNECTIONS
 10
27
 20
17.1861162980398
 40
0
  0
CIRCLE
  8
CONNECTIONS
 10
-33
 20
-10.8138837019602
 40
0
  0
CIRCLE
  8
CONNECTIONS
 10
-17
 20
-10.8138837019602
 40
0
  0
CIRCLE
  8
CONNECTIONS
 10
-13
 20
-10.8138837019602
 40
0
  0
CIRCLE
  8
CONNECTIONS
 10
31
 20
-10.8138837019602
 40
0
  0
CIRCLE
  8
CONNECTIONS
 10
5
 20
3.18611629803975
 40
0
  0
CIRCLE
  8
CONNECTIONS
 10
-39
 20
3.18611629803975
 40
0
  0
ENDBLK
  8
0
  0
ENDSEC
  0
SECTION
  2
ENTITIES
  0
INSERT
  8
1
  2
B96913_00992995
 10
43
 20
17.1861163775126
  0
ENDSEC
  0
EOF
