  0
SECTION
  2
HEADER
  9
$LIMMIN
 10
0
 20
0
  9
$LIMMAX
 10
52.5
 20
74.25
  9
$EXTMIN
 10
0
 20
47.979803723766
  9
$EXTMAX
 10
0
 20
18
  0
ENDSEC
  0
SECTION
  2
TABLES
  0
TABLE
  2
LTYPE
 70
9
  0
LTYPE
  2
CONTINUOUS
 70
64
  3
Solid line
 72
65
 73
0
 40
0
  0
LTYPE
  2
DASHED
 70
64
  3
__ __ __ __ __ __ __ __ __
 72
65
 73
2
 40
0.75
 49
0.5
 49
-0.25
  0
LTYPE
  2
DOT
 70
64
  3
...........................
 72
65
 73
2
 40
0.25
 49
0
 49
-0.25
  0
LTYPE
  2
DASHDOT
 70
64
  3
__ . __ . __ . __ . __ . __ . 
 72
65
 73
4
 40
1
 49
0.5
 49
-0.25
 49
0
 49
-0.25
  0
ENDTAB
  0
TABLE
  2
LAYER
 70
10
  0
LAYER
  2
1
 70
0
 62
7
  6
CONTINUOUS
  0
LAYER
  2
CONNECTIONS
 70
0
 62
-7
  6
CONTINUOUS
  0
ENDTAB
  0
ENDSEC
  0
SECTION
  2
BLOCKS
  0
BLOCK
  8
0
  2
TRICON
 70
0
 10
0
 20
0
  0
POLYLINE
  8
1
 70
1
 66
1
 40
0.5
 41
0.5
  0
VERTEX
  8
1
 10
-0.25
 20
0
 42
1
  0
VERTEX
  8
1
 10
0.25
 20
0
 42
1
  0
SEQEND
  8
1
  0
ENDBLK
  8
0
  0
BLOCK
  8
0
  2
TRICONSMALL
 70
0
 10
0
 20
0
  0
POLYLINE
  8
1
 70
1
 66
1
 40
0.25
 41
0.25
  0
VERTEX
  8
1
 10
-0.125
 20
0
 42
1
  0
VERTEX
  8
1
 10
0.125
 20
0
 42
1
  0
SEQEND
  8
1
  0
ENDBLK
  8
0
  0
BLOCK
  8
0
  2
TRICONCIRCLE
 70
0
 10
0
 20
0
  0
CIRCLE
  8
1
 10
0
 20
0
 40
0.5
  0
ENDBLK
  8
0
  0
BLOCK
  8
0
  2
LCBP0
 70
0
 10
0
 20
0
  0
LINE
  8
1
 10
0
 20
-0.46875
 11
0
 21
0.46875
  0
ENDBLK
  8
0
  0
BLOCK
  8
0
  2
LCBP1
 70
0
 10
0
 20
0
  0
LINE
  8
1
 10
0
 20
-0.625
 11
0
 21
0.625
  0
ENDBLK
  8
0
  0
BLOCK
  8
0
  2
LCBP2
 70
0
 10
0
 20
0
  0
LINE
  8
1
 10
0
 20
-0.9375
 11
0
 21
0.9375
  0
ENDBLK
  8
0
  0
BLOCK
  8
0
  2
LCA1
 70
0
 10
0
 20
0
  0
SOLID
  8
1
 62
7 
 10
0
 20
0
 11
-1.4
 21
-0.275
 12
-1.4
 22
0.275
 13
-1.4
 23
0.275
  0
ENDBLK
  8
0
  0
BLOCK
  8
0
  2
LCA2
 70
0
 10
0
 20
0
  0
SOLID
  8
1
 62
7 
 10
0
 20
0
 11
-1.65
 21
-0.525
 12
-1.65
 22
0.525
 13
-1.65
 23
0.525
  0
ENDBLK
  8
0
  0
BLOCK
  8
0
  2
LCA3
 70
0
 10
0
 20
0
  0
SOLID
  8
1
 62
7 
 10
0
 20
0
 11
-2.15
 21
-1.15
 12
-2.15
 22
1.15
 13
-2.15
 23
1.15
  0
ENDBLK
  8
0
  0
BLOCK
  8
0
  2
LCA1R
 70
0
 10
0
 20
0
  0
SOLID
  8
1
 62
7 
 10
0
 20
0
 11
1.4
 21
-0.275
 12
1.4
 22
0.275
 13
1.4
 23
0.275
  0
ENDBLK
  8
0
  0
BLOCK
  8
0
  2
LCA2R
 70
0
 10
0
 20
0
  0
SOLID
  8
1
 62
7 
 10
0
 20
0
 11
1.65
 21
-0.525
 12
1.65
 22
0.525
 13
1.65
 23
0.525
  0
ENDBLK
  8
0
  0
BLOCK
  8
0
  2
LCA3R
 70
0
 10
0
 20
0
  0
SOLID
  8
1
 62
7 
 10
0
 20
0
 11
2.15
 21
-1.15
 12
2.15
 22
1.15
 13
2.15
 23
1.15
  0
ENDBLK
  8
0
  0
BLOCK
  8
0
  2
B161629_00992991
 70
0
 10
0
 20
0
  0
TEXT
  8
1
 40
2.475
 41
0.75
  1
(14)
  7
STANDARD
 72
2
 73
2
 10
-18.5006783816584
 20
-5.65437072933614
 11
-18.5006783816584
 21
-5.65437072933614
  0
LINE
  8
1
 10
-17.989901861883
 20
-3.05437072933614
 11
-17.989901861883
 21
-7.05437072933614
  0
TEXT
  8
1
 40
2.475
 41
0.75
  1
3
  7
STANDARD
 73
3
 10
10.0297339259238
 20
-6.04651740392049
 11
10.0297339259238
 21
-6.04651740392049
  0
TEXT
  8
1
 40
2.475
 41
0.75
  1
1
  7
STANDARD
 72
2
 73
3
 10
6.39495494948338
 20
-5.94651740392049
 11
6.39495494948338
 21
-5.94651740392049
  0
TEXT
  8
1
 40
2.475
 41
0.75
  1
5
  7
STANDARD
 72
2
 73
3
 10
1.79495494948338
 20
-5.94651740392049
 11
1.79495494948338
 21
-5.94651740392049
  0
LINE
  8
1
 10
2.02973392592381
 20
-5
 11
2.02973392592381
 21
-9
  0
LINE
  8
1
 10
6.02973392592381
 20
-5
 11
6.02973392592381
 21
-9
  0
LINE
  8
1
 10
10.0297339259238
 20
-5
 11
10.0297339259238
 21
-9
  0
TEXT
  8
1
 40
2.475
 41
0.75
  1
2
  7
STANDARD
 72
2
 10
9.69495494948338
 20
6.26526740392049
 11
9.69495494948338
 21
6.26526740392049
  0
TEXT
  8
1
 40
2.475
 41
0.75
  1
4
  7
STANDARD
 72
2
 10
1.9741321490034
 20
6.2375
 11
1.9741321490034
 21
6.2375
  0
LINE
  8
1
 10
10.0297339259238
 20
5
 11
10.0297339259238
 21
9
  0
LINE
  8
1
 10
2.02973392592381
 20
9
 11
2.02973392592381
 21
5
  0
TEXT
  8
1
 40
2.475
 41
0.75
  1
12
  7
STANDARD
 73
2
 10
18.010098138117
 20
3.94562927066386
 11
18.010098138117
 21
3.94562927066386
  0
TEXT
  8
1
 40
2.475
 41
0.75
  1
14
  7
STANDARD
 73
2
 10
-22.989901861883
 20
3.94562927066386
 11
-22.989901861883
 21
3.94562927066386
  0
POLYLINE
  8
1
 66
1
  0
VERTEX
  8
1
 10
12.010098138117
 20
-0.0543707293361422
  0
VERTEX
  8
1
 10
14.010098138117
 20
-0.0543707293361422
  0
VERTEX
  8
1
 10
14.010098138117
 20
-3.05437072933614
  0
VERTEX
  8
1
 10
12.010098138117
 20
-3.05437072933614
  0
VERTEX
  8
1
 10
12.010098138117
 20
-0.0543707293361422
  0
SEQEND
  8
1
  0
POLYLINE
  8
1
 66
1
  0
VERTEX
  8
1
 10
-13.989901861883
 20
2.94562927066386
  0
VERTEX
  8
1
 10
-11.989901861883
 20
2.94562927066386
  0
VERTEX
  8
1
 10
-11.989901861883
 20
-3.05437072933614
  0
VERTEX
  8
1
 10
-13.989901861883
 20
-3.05437072933614
  0
VERTEX
  8
1
 10
-13.989901861883
 20
2.94562927066386
  0
SEQEND
  8
1
  0
LINE
  8
1
 10
10.010098138117
 20
-3.05437072933614
 11
10.010098138117
 21
-5.05437072933614
  0
LINE
  8
1
 10
6.010098138117
 20
-3.05437072933614
 11
6.010098138117
 21
-5.05437072933614
  0
LINE
  8
1
 10
2.010098138117
 20
-3.05437072933614
 11
2.010098138117
 21
-5.05437072933614
  0
POLYLINE
  8
1
  6
DOT
 66
1
  0
VERTEX
  8
1
 10
18.010098138117
 20
-3.05437072933614
  0
VERTEX
  8
1
 10
18.010098138117
 20
-5.05437072933614
  0
VERTEX
  8
1
 10
-15.989901861883
 20
-5.05437072933614
  0
VERTEX
  8
1
 10
-17.989901861883
 20
-3.05437072933614
  0
SEQEND
  8
1
  0
POLYLINE
  8
1
 66
1
  0
VERTEX
  8
1
 10
18.010098138117
 20
0.945629270663858
  0
VERTEX
  8
1
 10
14.010098138117
 20
0.945629270663858
  0
VERTEX
  8
1
 10
14.010098138117
 20
-3.05437072933614
  0
VERTEX
  8
1
 10
18.010098138117
 20
-3.05437072933614
  0
VERTEX
  8
1
 10
18.010098138117
 20
0.945629270663858
  0
SEQEND
  8
1
  0
LINE
  8
1
 10
18.010098138117
 20
0.945629270663858
 11
14.5459965229792
 21
-1.05437072933614
  0
LINE
  8
1
 10
18.010098138117
 20
-3.05437072933614
 11
14.5459965229792
 21
-1.05437072933614
  0
POLYLINE
  8
1
 66
1
  0
VERTEX
  8
1
 10
-17.989901861883
 20
0.945629270663858
  0
VERTEX
  8
1
 10
-13.989901861883
 20
0.945629270663858
  0
VERTEX
  8
1
 10
-13.989901861883
 20
-3.05437072933614
  0
VERTEX
  8
1
 10
-17.989901861883
 20
-3.05437072933614
  0
VERTEX
  8
1
 10
-17.989901861883
 20
0.945629270663858
  0
SEQEND
  8
1
  0
LINE
  8
1
 10
-17.989901861883
 20
0.945629270663858
 11
-17.989901861883
 21
-3.05437072933614
  0
LINE
  8
1
 10
-17.989901861883
 20
0.945629270663858
 11
-14.5258002467452
 21
-1.05437072933614
  0
LINE
  8
1
 10
-17.989901861883
 20
-3.05437072933614
 11
-14.5258002467452
 21
-1.05437072933614
  0
LINE
  8
1
 10
21.989901861883
 20
-3.01708946759354
 11
19.989901861883
 21
0.982910532406459
  0
POLYLINE
  8
1
 66
1
  0
VERTEX
  8
1
 10
23.989901861883
 20
0.982910532406457
  0
VERTEX
  8
1
 10
17.989901861883
 20
0.982910532406457
  0
VERTEX
  8
1
 10
17.989901861883
 20
-3.01708946759354
  0
VERTEX
  8
1
 10
23.989901861883
 20
-3.01708946759354
  0
VERTEX
  8
1
 10
23.989901861883
 20
0.982910532406457
  0
SEQEND
  8
1
  0
LINE
  8
1
 10
-21.989901861883
 20
-3.05437072933614
 11
-19.989901861883
 21
0.945629270663858
  0
POLYLINE
  8
1
 66
1
  0
VERTEX
  8
1
 10
-23.989901861883
 20
0.945629270663858
  0
VERTEX
  8
1
 10
-17.989901861883
 20
0.945629270663858
  0
VERTEX
  8
1
 10
-17.989901861883
 20
-3.05437072933614
  0
VERTEX
  8
1
 10
-23.989901861883
 20
-3.05437072933614
  0
VERTEX
  8
1
 10
-23.989901861883
 20
0.945629270663858
  0
SEQEND
  8
1
  0
LINE
  8
1
 10
-9.989901861883
 20
-3.05437072933614
 11
-9.989901861883
 21
-1.05437072933614
  0
INSERT
  8
1
  2
LCBP1
 10
-9.989901861883
 20
-1.05437072933614
 50
90
  0
POLYLINE
  8
1
 66
1
  0
VERTEX
  8
1
 10
-11.989901861883
 20
4.94562927066386
  0
VERTEX
  8
1
 10
0.0100981381170016
 20
4.94562927066386
  0
VERTEX
  8
1
 10
0.0100981381170016
 20
-3.05437072933614
  0
VERTEX
  8
1
 10
-11.989901861883
 20
-3.05437072933614
  0
VERTEX
  8
1
 10
-11.989901861883
 20
4.94562927066386
  0
SEQEND
  8
1
  0
LINE
  8
1
 10
-9.989901861883
 20
4.94562927066386
 11
-5.989901861883
 21
-3.05437072933614
  0
INSERT
  8
1
  2
LCA1
 10
-5.989901861883
 20
-3.05437072933614
 50
-63.434948822922
  0
INSERT
  8
1
  2
LCA1R
 10
-9.989901861883
 20
4.94562927066386
 50
-63.434948822922
  0
LINE
  8
1
 10
-1.989901861883
 20
-3.05437072933614
 11
-1.989901861883
 21
4.94562927066386
  0
INSERT
  8
1
  2
LCA1
 10
-1.989901861883
 20
4.94562927066386
 50
90
  0
INSERT
  8
1
  2
LCA1R
 10
-1.989901861883
 20
-3.05437072933614
 50
90
  0
LINE
  8
1
 10
10.010098138117
 20
-3.05437072933614
 11
10.010098138117
 21
-1.05437072933614
  0
INSERT
  8
1
  2
LCBP1
 10
10.010098138117
 20
-1.05437072933614
 50
90
  0
POLYLINE
  8
1
 66
1
  0
VERTEX
  8
1
 10
0.0100981381170016
 20
4.94562927066386
  0
VERTEX
  8
1
 10
12.010098138117
 20
4.94562927066386
  0
VERTEX
  8
1
 10
12.010098138117
 20
-3.05437072933614
  0
VERTEX
  8
1
 10
0.0100981381170016
 20
-3.05437072933614
  0
VERTEX
  8
1
 10
0.0100981381170016
 20
4.94562927066386
  0
SEQEND
  8
1
  0
LINE
  8
1
 10
2.010098138117
 20
-3.05437072933614
 11
2.010098138117
 21
4.94562927066386
  0
INSERT
  8
1
  2
LCA1
 10
2.010098138117
 20
4.94562927066386
 50
90
  0
INSERT
  8
1
  2
LCA1R
 10
2.010098138117
 20
-3.05437072933614
 50
90
  0
LINE
  8
1
 10
6.010098138117
 20
-3.05437072933614
 11
10.010098138117
 21
4.94562927066386
  0
INSERT
  8
1
  2
LCA1
 10
10.010098138117
 20
4.94562927066386
 50
63.434948822922
  0
INSERT
  8
1
  2
LCA1R
 10
6.010098138117
 20
-3.05437072933614
 50
63.434948822922
  0
CIRCLE
  8
CONNECTIONS
 10
24.010098138117
 20
-1.05437072933614
 40
0
  0
CIRCLE
  8
CONNECTIONS
 10
-23.9051500969497
 20
-1.05437072933614
 40
0
  0
CIRCLE
  8
CONNECTIONS
 10
-17.989901861883
 20
-7.05437072933614
 40
0
  0
CIRCLE
  8
CONNECTIONS
 10
2.02973392592381
 20
9
 40
0
  0
CIRCLE
  8
CONNECTIONS
 10
10.0297339259238
 20
9
 40
0
  0
CIRCLE
  8
CONNECTIONS
 10
10.0297339259238
 20
-9
 40
0
  0
CIRCLE
  8
CONNECTIONS
 10
6.02973392592381
 20
-9
 40
0
  0
CIRCLE
  8
CONNECTIONS
 10
2.02973392592381
 20
-9
 40
0
  0
ENDBLK
  8
0
  0
ENDSEC
  0
SECTION
  2
ENTITIES
  0
INSERT
  8
1
  2
B161629_00992991
 10
23.989901861883
 20
9
  0
ENDSEC
  0
EOF
