  0
SECTION
  2
HEADER
  9
$LIMMIN
 10
0
 20
0
  9
$LIMMAX
 10
52.5
 20
74.25
  9
$EXTMIN
 10
0
 20
79
  9
$EXTMAX
 10
0
 20
30
  0
ENDSEC
  0
SECTION
  2
TABLES
  0
TABLE
  2
LTYPE
 70
9
  0
LTYPE
  2
CONTINUOUS
 70
64
  3
Solid line
 72
65
 73
0
 40
0
  0
LTYPE
  2
DASHED
 70
64
  3
__ __ __ __ __ __ __ __ __
 72
65
 73
2
 40
0.75
 49
0.5
 49
-0.25
  0
LTYPE
  2
DOT
 70
64
  3
...........................
 72
65
 73
2
 40
0.25
 49
0
 49
-0.25
  0
LTYPE
  2
DASHDOT
 70
64
  3
__ . __ . __ . __ . __ . __ . 
 72
65
 73
4
 40
1
 49
0.5
 49
-0.25
 49
0
 49
-0.25
  0
ENDTAB
  0
TABLE
  2
LAYER
 70
10
  0
LAYER
  2
1
 70
0
 62
7
  6
CONTINUOUS
  0
LAYER
  2
CONNECTIONS
 70
0
 62
-7
  6
CONTINUOUS
  0
ENDTAB
  0
ENDSEC
  0
SECTION
  2
BLOCKS
  0
BLOCK
  8
0
  2
TRICON
 70
0
 10
0
 20
0
  0
POLYLINE
  8
1
 70
1
 66
1
 40
0.5
 41
0.5
  0
VERTEX
  8
1
 10
-0.25
 20
0
 42
1
  0
VERTEX
  8
1
 10
0.25
 20
0
 42
1
  0
SEQEND
  8
1
  0
ENDBLK
  8
0
  0
BLOCK
  8
0
  2
TRICONSMALL
 70
0
 10
0
 20
0
  0
POLYLINE
  8
1
 70
1
 66
1
 40
0.25
 41
0.25
  0
VERTEX
  8
1
 10
-0.125
 20
0
 42
1
  0
VERTEX
  8
1
 10
0.125
 20
0
 42
1
  0
SEQEND
  8
1
  0
ENDBLK
  8
0
  0
BLOCK
  8
0
  2
TRICONCIRCLE
 70
0
 10
0
 20
0
  0
CIRCLE
  8
1
 10
0
 20
0
 40
0.5
  0
ENDBLK
  8
0
  0
BLOCK
  8
0
  2
LCBP0
 70
0
 10
0
 20
0
  0
LINE
  8
1
 10
0
 20
-0.46875
 11
0
 21
0.46875
  0
ENDBLK
  8
0
  0
BLOCK
  8
0
  2
LCBP1
 70
0
 10
0
 20
0
  0
LINE
  8
1
 10
0
 20
-0.625
 11
0
 21
0.625
  0
ENDBLK
  8
0
  0
BLOCK
  8
0
  2
LCBP2
 70
0
 10
0
 20
0
  0
LINE
  8
1
 10
0
 20
-0.9375
 11
0
 21
0.9375
  0
ENDBLK
  8
0
  0
BLOCK
  8
0
  2
LCA1
 70
0
 10
0
 20
0
  0
SOLID
  8
1
 62
7 
 10
0
 20
0
 11
-1.4
 21
-0.275
 12
-1.4
 22
0.275
 13
-1.4
 23
0.275
  0
ENDBLK
  8
0
  0
BLOCK
  8
0
  2
LCA2
 70
0
 10
0
 20
0
  0
SOLID
  8
1
 62
7 
 10
0
 20
0
 11
-1.65
 21
-0.525
 12
-1.65
 22
0.525
 13
-1.65
 23
0.525
  0
ENDBLK
  8
0
  0
BLOCK
  8
0
  2
LCA3
 70
0
 10
0
 20
0
  0
SOLID
  8
1
 62
7 
 10
0
 20
0
 11
-2.15
 21
-1.15
 12
-2.15
 22
1.15
 13
-2.15
 23
1.15
  0
ENDBLK
  8
0
  0
BLOCK
  8
0
  2
LCA1R
 70
0
 10
0
 20
0
  0
SOLID
  8
1
 62
7 
 10
0
 20
0
 11
1.4
 21
-0.275
 12
1.4
 22
0.275
 13
1.4
 23
0.275
  0
ENDBLK
  8
0
  0
BLOCK
  8
0
  2
LCA2R
 70
0
 10
0
 20
0
  0
SOLID
  8
1
 62
7 
 10
0
 20
0
 11
1.65
 21
-0.525
 12
1.65
 22
0.525
 13
1.65
 23
0.525
  0
ENDBLK
  8
0
  0
BLOCK
  8
0
  2
LCA3R
 70
0
 10
0
 20
0
  0
SOLID
  8
1
 62
7 
 10
0
 20
0
 11
2.15
 21
-1.15
 12
2.15
 22
1.15
 13
2.15
 23
1.15
  0
ENDBLK
  8
0
  0
BLOCK
  8
0
  2
B33146_00992877
 70
0
 10
0
 20
0
  0
POLYLINE
  8
1
 66
1
  0
VERTEX
  8
1
 10
-39.5
 20
11
  0
VERTEX
  8
1
 10
39.5
 20
11
  0
VERTEX
  8
1
 10
39.5
 20
-11
  0
VERTEX
  8
1
 10
-39.5
 20
-11
  0
VERTEX
  8
1
 10
-39.5
 20
11
  0
SEQEND
  8
1
  0
LINE
  8
1
 10
-13.5
 20
-1
 11
-13.5
 21
-11
  0
LINE
  8
1
 10
-25.5
 20
-1
 11
-25.5
 21
-11
  0
LINE
  8
1
 10
-29.5
 20
-1
 11
-29.5
 21
-11
  0
LINE
  8
1
 10
26.5
 20
7
 11
26.5
 21
11
  0
LINE
  8
1
 10
-13.5
 20
7
 11
-13.5
 21
11
  0
POLYLINE
  8
1
  6
DOT
 66
1
  0
VERTEX
  8
1
 10
-13.5
 20
-1
  0
VERTEX
  8
1
 10
-11.5
 20
-3
  0
VERTEX
  8
1
 10
26.5
 20
-3
  0
VERTEX
  8
1
 10
26.5
 20
-1
  0
SEQEND
  8
1
  0
POLYLINE
  8
1
  6
DOT
 66
1
  0
VERTEX
  8
1
 10
-25.5
 20
-1
  0
VERTEX
  8
1
 10
-21.5
 20
-5
  0
VERTEX
  8
1
 10
14.5
 20
-5
  0
VERTEX
  8
1
 10
14.5
 20
-1
  0
SEQEND
  8
1
  0
POLYLINE
  8
1
  6
DOT
 66
1
  0
VERTEX
  8
1
 10
-29.5
 20
-1
  0
VERTEX
  8
1
 10
-23.5
 20
-7
  0
VERTEX
  8
1
 10
10.5
 20
-7
  0
VERTEX
  8
1
 10
10.5
 20
-1
  0
SEQEND
  8
1
  0
TEXT
  8
1
 40
2.475
 41
0.75
  1
12/14
  7
STANDARD
 72
2
 10
-30.1347783406575
 20
-14.7624993642171
 11
-30.1347783406575
 21
-14.7624993642171
  0
TEXT
  8
1
 40
2.475
 41
0.75
  1
82/84
  7
STANDARD
 73
2
 10
-25.1621943155924
 20
-13.7277667681376
 11
-25.1621943155924
 21
-13.7277667681376
  0
TEXT
  8
1
 40
2.475
 41
0.75
  1
1
  7
STANDARD
 73
2
 10
-12.5666666666667
 20
-13.6666666666667
 11
-12.5666666666667
 21
-13.6666666666667
  0
TEXT
  8
1
 40
2.475
 41
0.75
  1
2
  7
STANDARD
 72
2
 73
2
 10
26.2940826416016
 20
14.9333333333333
 11
26.2940826416016
 21
14.9333333333333
  0
TEXT
  8
1
 40
2.475
 41
0.75
  1
4
  7
STANDARD
 72
2
 73
2
 10
-13.7059173583984
 20
14.9333333333333
 11
-13.7059173583984
 21
14.9333333333333
  0
LINE
  8
1
 10
26.5
 20
11
 11
26.5
 21
15
  0
LINE
  8
1
 10
-13.5
 20
11
 11
-13.5
 21
15
  0
LINE
  8
1
 10
-13.5
 20
-11
 11
-13.5
 21
-15
  0
LINE
  8
1
 10
-25.5
 20
-11
 11
-25.5
 21
-15
  0
LINE
  8
1
 10
-29.5
 20
-11
 11
-29.5
 21
-15
  0
TEXT
  8
1
 40
2.475
 41
0.75
  1
12
  7
STANDARD
 72
2
 73
2
 10
6.2
 20
6.3
 11
6.2
 21
6.3
  0
TEXT
  8
1
 40
2.475
 41
0.75
  1
14
  7
STANDARD
 72
2
 73
2
 10
-33.5
 20
6.3
 11
-33.5
 21
6.3
  0
POLYLINE
  8
1
 66
1
  0
VERTEX
  8
1
 10
35.5
 20
1
  0
VERTEX
  8
1
 10
35.0833333333333
 20
-1
  0
VERTEX
  8
1
 10
34.25
 20
3
  0
VERTEX
  8
1
 10
33.4166666666668
 20
-1
  0
VERTEX
  8
1
 10
32.5833333333332
 20
3
  0
VERTEX
  8
1
 10
31.75
 20
-1
  0
VERTEX
  8
1
 10
30.9166666666668
 20
3
  0
VERTEX
  8
1
 10
30.5
 20
1
  0
SEQEND
  8
1
  0
POLYLINE
  8
1
 66
1
  0
VERTEX
  8
1
 10
-4.5
 20
1
  0
VERTEX
  8
1
 10
-4.91666666666668
 20
-1
  0
VERTEX
  8
1
 10
-5.75
 20
3
  0
VERTEX
  8
1
 10
-6.58333333333335
 20
-1
  0
VERTEX
  8
1
 10
-7.41666666666665
 20
3
  0
VERTEX
  8
1
 10
-8.25
 20
-1
  0
VERTEX
  8
1
 10
-9.08333333333332
 20
3
  0
VERTEX
  8
1
 10
-9.5
 20
1
  0
SEQEND
  8
1
  0
LINE
  8
1
 10
6.5
 20
-1
 11
8.5
 21
3
  0
POLYLINE
  8
1
 66
1
  0
VERTEX
  8
1
 10
4.5
 20
3
  0
VERTEX
  8
1
 10
10.5
 20
3
  0
VERTEX
  8
1
 10
10.5
 20
-1
  0
VERTEX
  8
1
 10
4.5
 20
-1
  0
VERTEX
  8
1
 10
4.5
 20
3
  0
SEQEND
  8
1
  0
LINE
  8
1
 10
-33.5
 20
-0.999999999999998
 11
-31.5
 21
3
  0
POLYLINE
  8
1
 66
1
  0
VERTEX
  8
1
 10
-35.5
 20
3
  0
VERTEX
  8
1
 10
-29.5
 20
3
  0
VERTEX
  8
1
 10
-29.5
 20
-0.999999999999996
  0
VERTEX
  8
1
 10
-35.5
 20
-0.999999999999996
  0
VERTEX
  8
1
 10
-35.5
 20
3
  0
SEQEND
  8
1
  0
LINE
  8
1
 10
6.5
 20
6.5
 11
10.5
 21
6.5
  0
LINE
  8
1
 10
6.5
 20
7
 11
6.5
 21
4
  0
LINE
  8
1
 10
6.5
 20
4.5
 11
10.5
 21
4.5
  0
LINE
  8
1
 10
10.5
 20
3
 11
10.5
 21
7
  0
LINE
  8
1
 10
-33.5
 20
6.5
 11
-29.5
 21
6.5
  0
LINE
  8
1
 10
-33.5
 20
7
 11
-33.5
 21
4
  0
LINE
  8
1
 10
-33.5
 20
4.5
 11
-29.5
 21
4.5
  0
LINE
  8
1
 10
-29.5
 20
3
 11
-29.5
 21
7
  0
POLYLINE
  8
1
 66
1
  0
VERTEX
  8
1
 10
10.5
 20
3
  0
VERTEX
  8
1
 10
14.5
 20
3
  0
VERTEX
  8
1
 10
14.5
 20
-1
  0
VERTEX
  8
1
 10
10.5
 20
-1
  0
VERTEX
  8
1
 10
10.5
 20
3
  0
SEQEND
  8
1
  0
LINE
  8
1
 10
10.5
 20
3
 11
10.5
 21
-1
  0
LINE
  8
1
 10
10.5
 20
3
 11
13.9641016151378
 21
1
  0
LINE
  8
1
 10
10.5
 20
-1
 11
13.9641016151378
 21
1
  0
POLYLINE
  8
1
 66
1
  0
VERTEX
  8
1
 10
-29.5
 20
3
  0
VERTEX
  8
1
 10
-25.5
 20
3
  0
VERTEX
  8
1
 10
-25.5
 20
-1
  0
VERTEX
  8
1
 10
-29.5
 20
-1
  0
VERTEX
  8
1
 10
-29.5
 20
3
  0
SEQEND
  8
1
  0
LINE
  8
1
 10
-29.5
 20
3
 11
-29.5
 21
-1
  0
LINE
  8
1
 10
-29.5
 20
3
 11
-26.0358983848622
 21
1
  0
LINE
  8
1
 10
-29.5
 20
-1
 11
-26.0358983848622
 21
1
  0
LINE
  8
1
 10
26.5
 20
7
 11
26.5
 21
5
  0
INSERT
  8
1
  2
LCBP1
 10
26.5
 20
5
 50
-90
  0
LINE
  8
1
 10
26.5
 20
-1
 11
26.5
 21
1
  0
INSERT
  8
1
  2
LCBP1
 10
26.5
 20
1
 50
90
  0
POLYLINE
  8
1
 66
1
  0
VERTEX
  8
1
 10
22.5
 20
7
  0
VERTEX
  8
1
 10
30.5
 20
7
  0
VERTEX
  8
1
 10
30.5
 20
-1
  0
VERTEX
  8
1
 10
22.5
 20
-1
  0
VERTEX
  8
1
 10
22.5
 20
7
  0
SEQEND
  8
1
  0
LINE
  8
1
 10
-13.5
 20
7
 11
-13.5
 21
5
  0
INSERT
  8
1
  2
LCBP1
 10
-13.5
 20
5
 50
-90
  0
LINE
  8
1
 10
-13.5
 20
-1
 11
-13.5
 21
1
  0
INSERT
  8
1
  2
LCBP1
 10
-13.5
 20
1
 50
90
  0
POLYLINE
  8
1
 66
1
  0
VERTEX
  8
1
 10
-17.5
 20
7
  0
VERTEX
  8
1
 10
-9.5
 20
7
  0
VERTEX
  8
1
 10
-9.5
 20
-1
  0
VERTEX
  8
1
 10
-17.5
 20
-1
  0
VERTEX
  8
1
 10
-17.5
 20
7
  0
SEQEND
  8
1
  0
POLYLINE
  8
1
 66
1
  0
VERTEX
  8
1
 10
14.5
 20
7
  0
VERTEX
  8
1
 10
22.5
 20
7
  0
VERTEX
  8
1
 10
22.5
 20
-1
  0
VERTEX
  8
1
 10
14.5
 20
-1
  0
VERTEX
  8
1
 10
14.5
 20
7
  0
SEQEND
  8
1
  0
LINE
  8
1
 10
18.5
 20
-1
 11
18.5
 21
7
  0
INSERT
  8
1
  2
LCA1
 10
18.5
 20
7
 50
90
  0
INSERT
  8
1
  2
LCA1R
 10
18.5
 20
-1
 50
90
  0
POLYLINE
  8
1
 66
1
  0
VERTEX
  8
1
 10
-25.5
 20
7
  0
VERTEX
  8
1
 10
-17.5
 20
7
  0
VERTEX
  8
1
 10
-17.5
 20
-1
  0
VERTEX
  8
1
 10
-25.5
 20
-1
  0
VERTEX
  8
1
 10
-25.5
 20
7
  0
SEQEND
  8
1
  0
LINE
  8
1
 10
-21.5
 20
-1
 11
-21.5
 21
7
  0
INSERT
  8
1
  2
LCA1
 10
-21.5
 20
7
 50
90
  0
INSERT
  8
1
  2
LCA1R
 10
-21.5
 20
-1
 50
90
  0
CIRCLE
  8
CONNECTIONS
 10
-13.4666666666667
 20
-15.0666666666667
 40
0
  0
CIRCLE
  8
CONNECTIONS
 10
-13.4666666666667
 20
14.9333333333333
 40
0
  0
CIRCLE
  8
CONNECTIONS
 10
26.5333333333333
 20
14.9333333333333
 40
0
  0
CIRCLE
  8
CONNECTIONS
 10
-29.5
 20
-15
 40
0
  0
CIRCLE
  8
CONNECTIONS
 10
-25.5666666666667
 20
-15
 40
0
  0
CIRCLE
  8
CONNECTIONS
 10
4.52712764739991
 20
0.899999999999999
 40
0
  0
CIRCLE
  8
CONNECTIONS
 10
-35.5
 20
1
 40
0
  0
ENDBLK
  8
0
  0
ENDSEC
  0
SECTION
  2
ENTITIES
  0
INSERT
  8
1
  2
B33146_00992877
 10
39.5
 20
15
  0
ENDSEC
  0
EOF
