  0
SECTION
  2
HEADER
  9
$LIMMIN
 10
0
 20
0
  9
$LIMMAX
 10
52.5
 20
74.25
  9
$EXTMIN
 10
0
 20
81
  9
$EXTMAX
 10
0
 20
34
  0
ENDSEC
  0
SECTION
  2
TABLES
  0
TABLE
  2
LTYPE
 70
9
  0
LTYPE
  2
CONTINUOUS
 70
64
  3
Solid line
 72
65
 73
0
 40
0
  0
LTYPE
  2
DASHED
 70
64
  3
__ __ __ __ __ __ __ __ __
 72
65
 73
2
 40
0.75
 49
0.5
 49
-0.25
  0
LTYPE
  2
DOT
 70
64
  3
...........................
 72
65
 73
2
 40
0.25
 49
0
 49
-0.25
  0
LTYPE
  2
DASHDOT
 70
64
  3
__ . __ . __ . __ . __ . __ . 
 72
65
 73
4
 40
1
 49
0.5
 49
-0.25
 49
0
 49
-0.25
  0
ENDTAB
  0
TABLE
  2
LAYER
 70
10
  0
LAYER
  2
1
 70
0
 62
7
  6
CONTINUOUS
  0
LAYER
  2
CONNECTIONS
 70
0
 62
-7
  6
CONTINUOUS
  0
ENDTAB
  0
ENDSEC
  0
SECTION
  2
BLOCKS
  0
BLOCK
  8
0
  2
TRICON
 70
0
 10
0
 20
0
  0
POLYLINE
  8
1
 70
1
 66
1
 40
0.5
 41
0.5
  0
VERTEX
  8
1
 10
-0.25
 20
0
 42
1
  0
VERTEX
  8
1
 10
0.25
 20
0
 42
1
  0
SEQEND
  8
1
  0
ENDBLK
  8
0
  0
BLOCK
  8
0
  2
TRICONSMALL
 70
0
 10
0
 20
0
  0
POLYLINE
  8
1
 70
1
 66
1
 40
0.25
 41
0.25
  0
VERTEX
  8
1
 10
-0.125
 20
0
 42
1
  0
VERTEX
  8
1
 10
0.125
 20
0
 42
1
  0
SEQEND
  8
1
  0
ENDBLK
  8
0
  0
BLOCK
  8
0
  2
TRICONCIRCLE
 70
0
 10
0
 20
0
  0
CIRCLE
  8
1
 10
0
 20
0
 40
0.5
  0
ENDBLK
  8
0
  0
BLOCK
  8
0
  2
LCBP0
 70
0
 10
0
 20
0
  0
LINE
  8
1
 10
0
 20
-0.46875
 11
0
 21
0.46875
  0
ENDBLK
  8
0
  0
BLOCK
  8
0
  2
LCBP1
 70
0
 10
0
 20
0
  0
LINE
  8
1
 10
0
 20
-0.625
 11
0
 21
0.625
  0
ENDBLK
  8
0
  0
BLOCK
  8
0
  2
LCBP2
 70
0
 10
0
 20
0
  0
LINE
  8
1
 10
0
 20
-0.9375
 11
0
 21
0.9375
  0
ENDBLK
  8
0
  0
BLOCK
  8
0
  2
LCA1
 70
0
 10
0
 20
0
  0
SOLID
  8
1
 62
7 
 10
0
 20
0
 11
-1.4
 21
-0.275
 12
-1.4
 22
0.275
 13
-1.4
 23
0.275
  0
ENDBLK
  8
0
  0
BLOCK
  8
0
  2
LCA2
 70
0
 10
0
 20
0
  0
SOLID
  8
1
 62
7 
 10
0
 20
0
 11
-1.65
 21
-0.525
 12
-1.65
 22
0.525
 13
-1.65
 23
0.525
  0
ENDBLK
  8
0
  0
BLOCK
  8
0
  2
LCA3
 70
0
 10
0
 20
0
  0
SOLID
  8
1
 62
7 
 10
0
 20
0
 11
-2.15
 21
-1.15
 12
-2.15
 22
1.15
 13
-2.15
 23
1.15
  0
ENDBLK
  8
0
  0
BLOCK
  8
0
  2
LCA1R
 70
0
 10
0
 20
0
  0
SOLID
  8
1
 62
7 
 10
0
 20
0
 11
1.4
 21
-0.275
 12
1.4
 22
0.275
 13
1.4
 23
0.275
  0
ENDBLK
  8
0
  0
BLOCK
  8
0
  2
LCA2R
 70
0
 10
0
 20
0
  0
SOLID
  8
1
 62
7 
 10
0
 20
0
 11
1.65
 21
-0.525
 12
1.65
 22
0.525
 13
1.65
 23
0.525
  0
ENDBLK
  8
0
  0
BLOCK
  8
0
  2
LCA3R
 70
0
 10
0
 20
0
  0
SOLID
  8
1
 62
7 
 10
0
 20
0
 11
2.15
 21
-1.15
 12
2.15
 22
1.15
 13
2.15
 23
1.15
  0
ENDBLK
  8
0
  0
BLOCK
  8
0
  2
B93648_00992875
 70
0
 10
0
 20
0
  0
POLYLINE
  8
1
 66
1
  0
VERTEX
  8
1
 10
-40.5
 20
13
  0
VERTEX
  8
1
 10
40.5
 20
13
  0
VERTEX
  8
1
 10
40.5
 20
-13
  0
VERTEX
  8
1
 10
-40.5
 20
-13
  0
VERTEX
  8
1
 10
-40.5
 20
13
  0
SEQEND
  8
1
  0
LINE
  8
1
  6
DOT
 10
-22.5
 20
-7
 11
13.5
 21
-7
  0
LINE
  8
1
  6
DOT
 10
-24.5
 20
-9
 11
9.5
 21
-9
  0
LINE
  8
1
  6
DOT
 10
13.5
 20
-7
 11
13.5
 21
-3
  0
LINE
  8
1
  6
DOT
 10
9.5
 20
-9
 11
9.5
 21
-2.95972885721496
  0
LINE
  8
1
  6
DOT
 10
-26.5
 20
-3
 11
-22.5
 21
-7
  0
LINE
  8
1
  6
DOT
 10
-30.5
 20
-3
 11
-24.5
 21
-9
  0
LINE
  8
1
 10
-14.5
 20
5
 11
-14.5
 21
13
  0
LINE
  8
1
 10
25.5
 20
5
 11
25.5
 21
13
  0
LINE
  8
1
 10
29.5
 20
-3
 11
29.5
 21
-13
  0
LINE
  8
1
 10
-10.5
 20
-3
 11
-10.5
 21
-13
  0
LINE
  8
1
 10
-14.5
 20
-3
 11
-14.5
 21
-13
  0
LINE
  8
1
 10
-26.5
 20
-3
 11
-26.5
 21
-13
  0
LINE
  8
1
 10
-30.5
 20
-3
 11
-30.5
 21
-13
  0
LINE
  8
1
  6
DOT
 10
-12.5
 20
-5
 11
25.5
 21
-5
  0
LINE
  8
1
  6
DOT
 10
25.5
 20
-3
 11
25.5
 21
-5
  0
LINE
  8
1
  6
DOT
 10
-14.5
 20
-3
 11
-12.5
 21
-5
  0
TEXT
  8
1
 40
2.475
 41
0.75
  1
10
  7
STANDARD
 72
2
 73
2
 10
10.5323431650798
 20
7.9
 11
10.5323431650798
 21
7.9
  0
TEXT
  8
1
 40
2.475
 41
0.75
  1
10
  7
STANDARD
 72
2
 73
2
 10
-29.5676568349203
 20
7.9
 11
-29.5676568349203
 21
7.9
  0
TEXT
  8
1
 40
2.475
 41
0.75
  1
82/84
  7
STANDARD
 10
-26
 20
-20.7625
  0
TEXT
  8
1
 40
2.475
 41
0.75
  1
12/14
  7
STANDARD
 72
2
 10
-30.5
 20
-17.7625
 11
-30.5
 21
-17.7625
  0
TEXT
  8
1
 40
2.475
 41
0.75
  1
1
  7
STANDARD
 72
2
 10
-10.5
 20
-17.7625
 11
-10.5
 21
-17.7625
  0
TEXT
  8
1
 40
2.475
 41
0.75
  1
5
  7
STANDARD
 10
-9.86522102355958
 20
-17.7625
  0
TEXT
  8
1
 40
2.475
 41
0.75
  1
3
  7
STANDARD
 10
25.5
 20
-17.7625
  0
TEXT
  8
1
 40
2.475
 41
0.75
  1
2
  7
STANDARD
 72
2
 73
3
 10
25.5
 20
16.38125
 11
25.5
 21
16.38125
  0
TEXT
  8
1
 40
2.475
 41
0.75
  1
4
  7
STANDARD
 72
2
 73
3
 10
-14.5
 20
16.38125
 11
-14.5
 21
16.38125
  0
LINE
  8
1
 10
-30.5
 20
-13
 11
-30.5
 21
-17
  0
LINE
  8
1
 10
-26.5
 20
-13
 11
-26.5
 21
-17
  0
LINE
  8
1
 10
-14.5
 20
-13
 11
-14.5
 21
-17
  0
LINE
  8
1
 10
-10.5
 20
-13
 11
-10.5
 21
-17
  0
LINE
  8
1
 10
29.5
 20
-13
 11
29.5
 21
-17
  0
LINE
  8
1
 10
25.5
 20
13
 11
25.5
 21
17
  0
LINE
  8
1
 10
-14.5
 20
13
 11
-14.5
 21
17
  0
LINE
  8
1
 10
5.5
 20
-3
 11
7.5
 21
1
  0
POLYLINE
  8
1
 66
1
  0
VERTEX
  8
1
 10
3.5
 20
1
  0
VERTEX
  8
1
 10
9.5
 20
1
  0
VERTEX
  8
1
 10
9.5
 20
-3
  0
VERTEX
  8
1
 10
3.5
 20
-3
  0
VERTEX
  8
1
 10
3.5
 20
1
  0
SEQEND
  8
1
  0
LINE
  8
1
 10
-34.5
 20
-3
 11
-32.5
 21
1
  0
POLYLINE
  8
1
 66
1
  0
VERTEX
  8
1
 10
-36.5
 20
1
  0
VERTEX
  8
1
 10
-30.5
 20
1
  0
VERTEX
  8
1
 10
-30.5
 20
-3
  0
VERTEX
  8
1
 10
-36.5
 20
-3
  0
VERTEX
  8
1
 10
-36.5
 20
1
  0
SEQEND
  8
1
  0
POLYLINE
  8
1
 66
1
  0
VERTEX
  8
1
 10
36.5
 20
-1
  0
VERTEX
  8
1
 10
36.0833333333333
 20
-3
  0
VERTEX
  8
1
 10
35.25
 20
1
  0
VERTEX
  8
1
 10
34.4166666666668
 20
-3
  0
VERTEX
  8
1
 10
33.5833333333332
 20
1
  0
VERTEX
  8
1
 10
32.75
 20
-3
  0
VERTEX
  8
1
 10
31.9166666666668
 20
1
  0
VERTEX
  8
1
 10
31.5
 20
-1
  0
SEQEND
  8
1
  0
POLYLINE
  8
1
 66
1
  0
VERTEX
  8
1
 10
-3.5
 20
-1
  0
VERTEX
  8
1
 10
-3.91666666666673
 20
-3
  0
VERTEX
  8
1
 10
-4.75
 20
1
  0
VERTEX
  8
1
 10
-5.58333333333325
 20
-3
  0
VERTEX
  8
1
 10
-6.41666666666675
 20
1
  0
VERTEX
  8
1
 10
-7.25
 20
-3
  0
VERTEX
  8
1
 10
-8.08333333333325
 20
1
  0
VERTEX
  8
1
 10
-8.5
 20
-1
  0
SEQEND
  8
1
  0
LINE
  8
1
 10
12.4999500595413
 20
-1
 11
9.49995005954131
 21
-3
  0
LINE
  8
1
 10
9.49995005954131
 20
1
 11
12.4999500595413
 21
-1
  0
POLYLINE
  8
1
 66
1
  0
VERTEX
  8
1
 10
9.49995005954131
 20
1
  0
VERTEX
  8
1
 10
15.4999500595413
 20
1
  0
VERTEX
  8
1
 10
15.4999500595413
 20
-3
  0
VERTEX
  8
1
 10
9.49995005954131
 20
-3
  0
VERTEX
  8
1
 10
9.49995005954131
 20
1
  0
SEQEND
  8
1
  0
LINE
  8
1
 10
-27.5
 20
-1
 11
-30.5
 21
-3
  0
LINE
  8
1
 10
-30.5
 20
1
 11
-27.5
 21
-1
  0
POLYLINE
  8
1
 66
1
  0
VERTEX
  8
1
 10
-30.5
 20
1
  0
VERTEX
  8
1
 10
-24.5
 20
1
  0
VERTEX
  8
1
 10
-24.5
 20
-3
  0
VERTEX
  8
1
 10
-30.5
 20
-3
  0
VERTEX
  8
1
 10
-30.5
 20
1
  0
SEQEND
  8
1
  0
LINE
  8
1
 10
5.5
 20
4.5
 11
9.5
 21
4.5
  0
LINE
  8
1
 10
5.5
 20
5
 11
5.5
 21
2
  0
LINE
  8
1
 10
5.5
 20
2.5
 11
9.5
 21
2.5
  0
LINE
  8
1
 10
9.5
 20
1
 11
9.5
 21
5
  0
LINE
  8
1
 10
-34.5
 20
4.5
 11
-30.5
 21
4.5
  0
LINE
  8
1
 10
-34.5
 20
5
 11
-34.5
 21
2
  0
LINE
  8
1
 10
-34.5
 20
2.5
 11
-30.5
 21
2.5
  0
LINE
  8
1
 10
-30.5
 20
1
 11
-30.5
 21
5
  0
LINE
  8
1
 10
17.5
 20
-3
 11
17.5
 21
-1
  0
INSERT
  8
1
  2
LCBP1
 10
17.5
 20
-1
 50
90
  0
POLYLINE
  8
1
 66
1
  0
VERTEX
  8
1
 10
15.5
 20
5
  0
VERTEX
  8
1
 10
23.5
 20
5
  0
VERTEX
  8
1
 10
23.5
 20
-3
  0
VERTEX
  8
1
 10
15.5
 20
-3
  0
VERTEX
  8
1
 10
15.5
 20
5
  0
SEQEND
  8
1
  0
LINE
  8
1
 10
17.5
 20
5
 11
21.5
 21
-3
  0
INSERT
  8
1
  2
LCA1
 10
21.5
 20
-3
 50
-63.434948822922
  0
INSERT
  8
1
  2
LCA1R
 10
17.5
 20
5
 50
-63.434948822922
  0
LINE
  8
1
 10
-22.5
 20
-3
 11
-22.5
 21
-1
  0
INSERT
  8
1
  2
LCBP1
 10
-22.5
 20
-1
 50
90
  0
POLYLINE
  8
1
 66
1
  0
VERTEX
  8
1
 10
-24.5
 20
5
  0
VERTEX
  8
1
 10
-16.5
 20
5
  0
VERTEX
  8
1
 10
-16.5
 20
-3
  0
VERTEX
  8
1
 10
-24.5
 20
-3
  0
VERTEX
  8
1
 10
-24.5
 20
5
  0
SEQEND
  8
1
  0
LINE
  8
1
 10
-22.5
 20
5
 11
-18.5
 21
-3
  0
INSERT
  8
1
  2
LCA1
 10
-18.5
 20
-3
 50
-63.434948822922
  0
INSERT
  8
1
  2
LCA1R
 10
-22.5
 20
5
 50
-63.434948822922
  0
LINE
  8
1
 10
29.5
 20
-3
 11
29.5
 21
-1
  0
INSERT
  8
1
  2
LCBP1
 10
29.5
 20
-1
 50
90
  0
POLYLINE
  8
1
 66
1
  0
VERTEX
  8
1
 10
23.5
 20
5
  0
VERTEX
  8
1
 10
31.5
 20
5
  0
VERTEX
  8
1
 10
31.5
 20
-3
  0
VERTEX
  8
1
 10
23.5
 20
-3
  0
VERTEX
  8
1
 10
23.5
 20
5
  0
SEQEND
  8
1
  0
LINE
  8
1
 10
25.5
 20
-3
 11
25.5
 21
5
  0
INSERT
  8
1
  2
LCA1
 10
25.5
 20
5
 50
90
  0
INSERT
  8
1
  2
LCA1R
 10
25.5
 20
-3
 50
90
  0
LINE
  8
1
 10
-10.5
 20
-3
 11
-10.5
 21
-1
  0
INSERT
  8
1
  2
LCBP1
 10
-10.5
 20
-1
 50
90
  0
POLYLINE
  8
1
 66
1
  0
VERTEX
  8
1
 10
-16.5
 20
5
  0
VERTEX
  8
1
 10
-8.5
 20
5
  0
VERTEX
  8
1
 10
-8.5
 20
-3
  0
VERTEX
  8
1
 10
-16.5
 20
-3
  0
VERTEX
  8
1
 10
-16.5
 20
5
  0
SEQEND
  8
1
  0
LINE
  8
1
 10
-14.5
 20
-3
 11
-14.5
 21
5
  0
INSERT
  8
1
  2
LCA1
 10
-14.5
 20
5
 50
90
  0
INSERT
  8
1
  2
LCA1R
 10
-14.5
 20
-3
 50
90
  0
CIRCLE
  8
CONNECTIONS
 10
-14.5
 20
17
 40
0
  0
CIRCLE
  8
CONNECTIONS
 10
25.5
 20
17
 40
0
  0
CIRCLE
  8
CONNECTIONS
 10
-30.5
 20
-17
 40
0
  0
CIRCLE
  8
CONNECTIONS
 10
-14.5
 20
-17
 40
0
  0
CIRCLE
  8
CONNECTIONS
 10
-10.5
 20
-17
 40
0
  0
CIRCLE
  8
CONNECTIONS
 10
-26.5
 20
-17
 40
0
  0
CIRCLE
  8
CONNECTIONS
 10
29.5
 20
-17
 40
0
  0
CIRCLE
  8
CONNECTIONS
 10
3.5
 20
-1
 40
0
  0
CIRCLE
  8
CONNECTIONS
 10
-36.5
 20
-1
 40
0
  0
ENDBLK
  8
0
  0
ENDSEC
  0
SECTION
  2
ENTITIES
  0
INSERT
  8
1
  2
B93648_00992875
 10
40.5
 20
17
  0
ENDSEC
  0
EOF
