  0
SECTION
  2
HEADER
  9
$LIMMIN
 10
0
 20
0
  9
$LIMMAX
 10
52.5
 20
74.25
  9
$EXTMIN
 10
0
 20
42
  9
$EXTMAX
 10
0
 20
16.529628944397
  0
ENDSEC
  0
SECTION
  2
TABLES
  0
TABLE
  2
LTYPE
 70
9
  0
LTYPE
  2
CONTINUOUS
 70
64
  3
Solid line
 72
65
 73
0
 40
0
  0
LTYPE
  2
DASHED
 70
64
  3
__ __ __ __ __ __ __ __ __
 72
65
 73
2
 40
0.75
 49
0.5
 49
-0.25
  0
LTYPE
  2
DOT
 70
64
  3
...........................
 72
65
 73
2
 40
0.25
 49
0
 49
-0.25
  0
LTYPE
  2
DASHDOT
 70
64
  3
__ . __ . __ . __ . __ . __ . 
 72
65
 73
4
 40
1
 49
0.5
 49
-0.25
 49
0
 49
-0.25
  0
ENDTAB
  0
TABLE
  2
LAYER
 70
10
  0
LAYER
  2
1
 70
0
 62
7
  6
CONTINUOUS
  0
LAYER
  2
CONNECTIONS
 70
0
 62
-7
  6
CONTINUOUS
  0
ENDTAB
  0
ENDSEC
  0
SECTION
  2
BLOCKS
  0
BLOCK
  8
0
  2
TRICON
 70
0
 10
0
 20
0
  0
POLYLINE
  8
1
 70
1
 66
1
 40
0.5
 41
0.5
  0
VERTEX
  8
1
 10
-0.25
 20
0
 42
1
  0
VERTEX
  8
1
 10
0.25
 20
0
 42
1
  0
SEQEND
  8
1
  0
ENDBLK
  8
0
  0
BLOCK
  8
0
  2
TRICONSMALL
 70
0
 10
0
 20
0
  0
POLYLINE
  8
1
 70
1
 66
1
 40
0.25
 41
0.25
  0
VERTEX
  8
1
 10
-0.125
 20
0
 42
1
  0
VERTEX
  8
1
 10
0.125
 20
0
 42
1
  0
SEQEND
  8
1
  0
ENDBLK
  8
0
  0
BLOCK
  8
0
  2
TRICONCIRCLE
 70
0
 10
0
 20
0
  0
CIRCLE
  8
1
 10
0
 20
0
 40
0.5
  0
ENDBLK
  8
0
  0
BLOCK
  8
0
  2
LCBP0
 70
0
 10
0
 20
0
  0
LINE
  8
1
 10
0
 20
-0.46875
 11
0
 21
0.46875
  0
ENDBLK
  8
0
  0
BLOCK
  8
0
  2
LCBP1
 70
0
 10
0
 20
0
  0
LINE
  8
1
 10
0
 20
-0.625
 11
0
 21
0.625
  0
ENDBLK
  8
0
  0
BLOCK
  8
0
  2
LCBP2
 70
0
 10
0
 20
0
  0
LINE
  8
1
 10
0
 20
-0.9375
 11
0
 21
0.9375
  0
ENDBLK
  8
0
  0
BLOCK
  8
0
  2
LCA1
 70
0
 10
0
 20
0
  0
SOLID
  8
1
 62
7 
 10
0
 20
0
 11
-1.4
 21
-0.275
 12
-1.4
 22
0.275
 13
-1.4
 23
0.275
  0
ENDBLK
  8
0
  0
BLOCK
  8
0
  2
LCA2
 70
0
 10
0
 20
0
  0
SOLID
  8
1
 62
7 
 10
0
 20
0
 11
-1.65
 21
-0.525
 12
-1.65
 22
0.525
 13
-1.65
 23
0.525
  0
ENDBLK
  8
0
  0
BLOCK
  8
0
  2
LCA3
 70
0
 10
0
 20
0
  0
SOLID
  8
1
 62
7 
 10
0
 20
0
 11
-2.15
 21
-1.15
 12
-2.15
 22
1.15
 13
-2.15
 23
1.15
  0
ENDBLK
  8
0
  0
BLOCK
  8
0
  2
LCA1R
 70
0
 10
0
 20
0
  0
SOLID
  8
1
 62
7 
 10
0
 20
0
 11
1.4
 21
-0.275
 12
1.4
 22
0.275
 13
1.4
 23
0.275
  0
ENDBLK
  8
0
  0
BLOCK
  8
0
  2
LCA2R
 70
0
 10
0
 20
0
  0
SOLID
  8
1
 62
7 
 10
0
 20
0
 11
1.65
 21
-0.525
 12
1.65
 22
0.525
 13
1.65
 23
0.525
  0
ENDBLK
  8
0
  0
BLOCK
  8
0
  2
LCA3R
 70
0
 10
0
 20
0
  0
SOLID
  8
1
 62
7 
 10
0
 20
0
 11
2.15
 21
-1.15
 12
2.15
 22
1.15
 13
2.15
 23
1.15
  0
ENDBLK
  8
0
  0
BLOCK
  8
0
  2
B159864_00992849
 70
0
 10
0
 20
0
  0
TEXT
  8
1
 40
2.4
 41
0.75
  1
14
  7
STANDARD
 72
2
 73
2
 10
-13.8676568349202
 20
5.93518536885579
 11
-13.8676568349202
 21
5.93518536885579
  0
TEXT
  8
1
 40
2.4
 41
0.75
  1
84
  7
STANDARD
 73
2
 10
-11.2028490066528
 20
-8.89258139928182
 11
-11.2028490066528
 21
-8.89258139928182
  0
LINE
  8
1
 10
-11
 20
-4.2648146311442
 11
-11
 21
-8.2648146311442
  0
TEXT
  8
1
 40
2.4
 41
0.75
  1
14
  7
STANDARD
 72
2
 73
2
 10
-14.9441098531087
 20
-8.8648146311442
 11
-14.9441098531087
 21
-8.8648146311442
  0
LINE
  8
1
 10
-15.0333333333333
 20
-4.2648146311442
 11
-15.0333333333333
 21
-8.2648146311442
  0
TEXT
  8
1
 40
2.4
 41
0.75
  1
1
  7
STANDARD
 72
2
 73
2
 10
9.95241584777831
 20
-8.9648146311442
 11
9.95241584777831
 21
-8.9648146311442
  0
TEXT
  8
1
 40
2.4
 41
0.75
  1
3
  7
STANDARD
 73
2
 10
12.8666666666667
 20
-8.9648146311442
 11
12.8666666666667
 21
-8.9648146311442
  0
TEXT
  8
1
 40
2.4
 41
0.75
  1
5
  7
STANDARD
 72
2
 73
2
 10
5.35241584777832
 20
-8.9648146311442
 11
5.35241584777832
 21
-8.9648146311442
  0
TEXT
  8
1
 40
2.4
 41
0.75
  1
2
  7
STANDARD
 72
2
 73
2
 10
12.6318876902262
 20
6.13518536885579
 11
12.6318876902262
 21
6.13518536885579
  0
TEXT
  8
1
 40
2.4749997138977
 41
0.75
  1
4
  7
STANDARD
 72
2
 73
2
 10
4.83188832600912
 20
6.1074179649353
 11
4.83188832600912
 21
6.1074179649353
  0
LINE
  8
1
 10
12.9666666666667
 20
3.7351853688558
 11
12.9666666666667
 21
7.7351853688558
  0
LINE
  8
1
 10
4.96666666666667
 20
-4.2648146311442
 11
4.96666666666667
 21
-8.2648146311442
  0
LINE
  8
1
 10
4.96666666666667
 20
7.7351853688558
 11
4.96666666666667
 21
3.7351853688558
  0
LINE
  8
1
 10
8.96666666666667
 20
-4.2648146311442
 11
8.96666666666667
 21
-8.2648146311442
  0
LINE
  8
1
 10
12.9666666666667
 20
-4.2648146311442
 11
12.9666666666667
 21
-8.2648146311442
  0
LINE
  8
1
 10
-19
 20
3.2351853688558
 11
-15
 21
3.2351853688558
  0
LINE
  8
1
 10
-19
 20
3.7351853688558
 11
-19
 21
0.735185368855795
  0
LINE
  8
1
 10
-19
 20
1.2351853688558
 11
-15
 21
1.2351853688558
  0
LINE
  8
1
 10
-15
 20
-0.264814631144205
 11
-15
 21
3.7351853688558
  0
LINE
  8
1
 10
-19
 20
-4.2648146311442
 11
-17
 21
-0.264814631144205
  0
POLYLINE
  8
1
 66
1
  0
VERTEX
  8
1
 10
-21
 20
-0.264814631144205
  0
VERTEX
  8
1
 10
-15
 20
-0.264814631144205
  0
VERTEX
  8
1
 10
-15
 20
-4.2648146311442
  0
VERTEX
  8
1
 10
-21
 20
-4.2648146311442
  0
VERTEX
  8
1
 10
-21
 20
-0.264814631144205
  0
SEQEND
  8
1
  0
LINE
  8
1
 10
-11
 20
-4.2648146311442
 11
-11
 21
-8.2648146311442
  0
LINE
  8
1
 10
-15
 20
-4.2648146311442
 11
-15
 21
-8.2648146311442
  0
LINE
  8
1
 10
5
 20
-4.2648146311442
 11
5
 21
-8.2648146311442
  0
LINE
  8
1
 10
9
 20
-4.2648146311442
 11
9
 21
-8.2648146311442
  0
LINE
  8
1
 10
13
 20
-4.2648146311442
 11
13
 21
-8.2648146311442
  0
POLYLINE
  8
1
  6
DOT
 66
1
  0
VERTEX
  8
1
 10
21
 20
-4.2648146311442
  0
VERTEX
  8
1
 10
21
 20
-6.2648146311442
  0
VERTEX
  8
1
 10
-13
 20
-6.2648146311442
  0
VERTEX
  8
1
 10
-15
 20
-4.2648146311442
  0
SEQEND
  8
1
  0
LINE
  8
1
 10
15
 20
3.7351853688558
 11
15
 21
7.7351853688558
  0
POLYLINE
  8
1
 66
1
  0
VERTEX
  8
1
 10
20
 20
5.7351853688558
  0
VERTEX
  8
1
 10
19.5833333333333
 20
3.7351853688558
  0
VERTEX
  8
1
 10
18.75
 20
7.7351853688558
  0
VERTEX
  8
1
 10
17.9166666666667
 20
3.7351853688558
  0
VERTEX
  8
1
 10
17.0833333333334
 20
7.7351853688558
  0
VERTEX
  8
1
 10
16.25
 20
3.7351853688558
  0
VERTEX
  8
1
 10
15.4166666666667
 20
7.7351853688558
  0
VERTEX
  8
1
 10
15
 20
5.7351853688558
  0
SEQEND
  8
1
  0
POLYLINE
  8
1
 66
1
  0
VERTEX
  8
1
 10
15
 20
-0.264814631144205
  0
VERTEX
  8
1
 10
21
 20
-0.264814631144205
  0
VERTEX
  8
1
 10
21
 20
-4.2648146311442
  0
VERTEX
  8
1
 10
15
 20
-4.2648146311442
  0
VERTEX
  8
1
 10
15
 20
-0.264814631144205
  0
SEQEND
  8
1
  0
LINE
  8
1
 10
17.5358983848622
 20
-2.2648146311442
 11
21
 21
-0.264814631144205
  0
LINE
  8
1
 10
17.5358983848622
 20
-2.2648146311442
 11
15
 21
-2.2648146311442
  0
LINE
  8
1
 10
21
 20
-4.2648146311442
 11
17.5358983848622
 21
-2.2648146311442
  0
LINE
  8
1
 10
-15
 20
-0.264814631144205
 11
-15
 21
-4.2648146311442
  0
POLYLINE
  8
1
 66
1
  0
VERTEX
  8
1
 10
-15
 20
-0.264814631144205
  0
VERTEX
  8
1
 10
-9
 20
-0.264814631144205
  0
VERTEX
  8
1
 10
-9
 20
-4.2648146311442
  0
VERTEX
  8
1
 10
-15
 20
-4.2648146311442
  0
VERTEX
  8
1
 10
-15
 20
-0.264814631144205
  0
SEQEND
  8
1
  0
LINE
  8
1
 10
-15
 20
-0.264814631144205
 11
-11.5358983848622
 21
-2.2648146311442
  0
LINE
  8
1
 10
-15
 20
-4.2648146311442
 11
-11.5358983848622
 21
-2.2648146311442
  0
POLYLINE
  8
1
 66
1
  0
VERTEX
  8
1
 10
-9
 20
3.7351853688558
  0
VERTEX
  8
1
 10
3
 20
3.7351853688558
  0
VERTEX
  8
1
 10
3
 20
-4.2648146311442
  0
VERTEX
  8
1
 10
-9
 20
-4.2648146311442
  0
VERTEX
  8
1
 10
-9
 20
3.7351853688558
  0
SEQEND
  8
1
  0
LINE
  8
1
 10
-7
 20
-4.2648146311442
 11
-7
 21
-2.2648146311442
  0
INSERT
  8
1
  2
LCBP1
 10
-7
 20
-2.2648146311442
 50
90
  0
LINE
  8
1
 10
-7
 20
3.7351853688558
 11
-3
 21
-4.2648146311442
  0
INSERT
  8
1
  2
LCA1
 10
-3
 20
-4.2648146311442
 50
-63.434948822922
  0
INSERT
  8
1
  2
LCA1R
 10
-7
 20
3.7351853688558
 50
-63.434948822922
  0
LINE
  8
1
 10
1
 20
-4.2648146311442
 11
1
 21
3.7351853688558
  0
INSERT
  8
1
  2
LCA1
 10
1
 20
3.7351853688558
 50
90
  0
INSERT
  8
1
  2
LCA1R
 10
1
 20
-4.2648146311442
 50
90
  0
POLYLINE
  8
1
 66
1
  0
VERTEX
  8
1
 10
3
 20
3.7351853688558
  0
VERTEX
  8
1
 10
15
 20
3.7351853688558
  0
VERTEX
  8
1
 10
15
 20
-4.2648146311442
  0
VERTEX
  8
1
 10
3
 20
-4.2648146311442
  0
VERTEX
  8
1
 10
3
 20
3.7351853688558
  0
SEQEND
  8
1
  0
LINE
  8
1
 10
13
 20
-4.2648146311442
 11
13
 21
-2.2648146311442
  0
INSERT
  8
1
  2
LCBP1
 10
13
 20
-2.2648146311442
 50
90
  0
LINE
  8
1
 10
5
 20
-4.2648146311442
 11
5
 21
3.7351853688558
  0
INSERT
  8
1
  2
LCA1
 10
5
 20
3.7351853688558
 50
90
  0
INSERT
  8
1
  2
LCA1R
 10
5
 20
-4.2648146311442
 50
90
  0
LINE
  8
1
 10
9
 20
-4.2648146311442
 11
13
 21
3.7351853688558
  0
INSERT
  8
1
  2
LCA1
 10
13
 20
3.7351853688558
 50
63.434948822922
  0
INSERT
  8
1
  2
LCA1R
 10
9
 20
-4.2648146311442
 50
63.434948822922
  0
CIRCLE
  8
CONNECTIONS
 10
-11
 20
-8.2648146311442
 40
0
  0
CIRCLE
  8
CONNECTIONS
 10
-15.0333333333333
 20
-8.2648146311442
 40
0
  0
CIRCLE
  8
CONNECTIONS
 10
4.96666666666667
 20
7.7351853688558
 40
0
  0
CIRCLE
  8
CONNECTIONS
 10
12.9666666666667
 20
7.7351853688558
 40
0
  0
CIRCLE
  8
CONNECTIONS
 10
12.9666666666667
 20
-8.2648146311442
 40
0
  0
CIRCLE
  8
CONNECTIONS
 10
8.96666666666667
 20
-8.2648146311442
 40
0
  0
CIRCLE
  8
CONNECTIONS
 10
4.96666666666667
 20
-8.2648146311442
 40
0
  0
CIRCLE
  8
CONNECTIONS
 10
-21.0152482350667
 20
-2.26481463114421
 40
0
  0
ENDBLK
  8
0
  0
ENDSEC
  0
SECTION
  2
ENTITIES
  0
INSERT
  8
1
  2
B159864_00992849
 10
21
 20
8.2648146311442
  0
ENDSEC
  0
EOF
