  0
SECTION
  2
HEADER
  9
$LIMMIN
 10
0
 20
0
  9
$LIMMAX
 10
52.5
 20
74.25
  9
$EXTMIN
 10
0
 20
60
  9
$EXTMAX
 10
0
 20
17.0150903741068
  0
ENDSEC
  0
SECTION
  2
TABLES
  0
TABLE
  2
LTYPE
 70
9
  0
LTYPE
  2
CONTINUOUS
 70
64
  3
Solid line
 72
65
 73
0
 40
0
  0
LTYPE
  2
DASHED
 70
64
  3
__ __ __ __ __ __ __ __ __
 72
65
 73
2
 40
0.75
 49
0.5
 49
-0.25
  0
LTYPE
  2
DOT
 70
64
  3
...........................
 72
65
 73
2
 40
0.25
 49
0
 49
-0.25
  0
LTYPE
  2
DASHDOT
 70
64
  3
__ . __ . __ . __ . __ . __ . 
 72
65
 73
4
 40
1
 49
0.5
 49
-0.25
 49
0
 49
-0.25
  0
ENDTAB
  0
TABLE
  2
LAYER
 70
10
  0
LAYER
  2
1
 70
0
 62
7
  6
CONTINUOUS
  0
LAYER
  2
CONNECTIONS
 70
0
 62
-7
  6
CONTINUOUS
  0
ENDTAB
  0
ENDSEC
  0
SECTION
  2
BLOCKS
  0
BLOCK
  8
0
  2
TRICON
 70
0
 10
0
 20
0
  0
POLYLINE
  8
1
 70
1
 66
1
 40
0.5
 41
0.5
  0
VERTEX
  8
1
 10
-0.25
 20
0
 42
1
  0
VERTEX
  8
1
 10
0.25
 20
0
 42
1
  0
SEQEND
  8
1
  0
ENDBLK
  8
0
  0
BLOCK
  8
0
  2
TRICONSMALL
 70
0
 10
0
 20
0
  0
POLYLINE
  8
1
 70
1
 66
1
 40
0.25
 41
0.25
  0
VERTEX
  8
1
 10
-0.125
 20
0
 42
1
  0
VERTEX
  8
1
 10
0.125
 20
0
 42
1
  0
SEQEND
  8
1
  0
ENDBLK
  8
0
  0
BLOCK
  8
0
  2
TRICONCIRCLE
 70
0
 10
0
 20
0
  0
CIRCLE
  8
1
 10
0
 20
0
 40
0.5
  0
ENDBLK
  8
0
  0
BLOCK
  8
0
  2
LCBP0
 70
0
 10
0
 20
0
  0
LINE
  8
1
 10
0
 20
-0.46875
 11
0
 21
0.46875
  0
ENDBLK
  8
0
  0
BLOCK
  8
0
  2
LCBP1
 70
0
 10
0
 20
0
  0
LINE
  8
1
 10
0
 20
-0.625
 11
0
 21
0.625
  0
ENDBLK
  8
0
  0
BLOCK
  8
0
  2
LCBP2
 70
0
 10
0
 20
0
  0
LINE
  8
1
 10
0
 20
-0.9375
 11
0
 21
0.9375
  0
ENDBLK
  8
0
  0
BLOCK
  8
0
  2
LCA1
 70
0
 10
0
 20
0
  0
SOLID
  8
1
 62
7 
 10
0
 20
0
 11
-1.4
 21
-0.275
 12
-1.4
 22
0.275
 13
-1.4
 23
0.275
  0
ENDBLK
  8
0
  0
BLOCK
  8
0
  2
LCA2
 70
0
 10
0
 20
0
  0
SOLID
  8
1
 62
7 
 10
0
 20
0
 11
-1.65
 21
-0.525
 12
-1.65
 22
0.525
 13
-1.65
 23
0.525
  0
ENDBLK
  8
0
  0
BLOCK
  8
0
  2
LCA3
 70
0
 10
0
 20
0
  0
SOLID
  8
1
 62
7 
 10
0
 20
0
 11
-2.15
 21
-1.15
 12
-2.15
 22
1.15
 13
-2.15
 23
1.15
  0
ENDBLK
  8
0
  0
BLOCK
  8
0
  2
LCA1R
 70
0
 10
0
 20
0
  0
SOLID
  8
1
 62
7 
 10
0
 20
0
 11
1.4
 21
-0.275
 12
1.4
 22
0.275
 13
1.4
 23
0.275
  0
ENDBLK
  8
0
  0
BLOCK
  8
0
  2
LCA2R
 70
0
 10
0
 20
0
  0
SOLID
  8
1
 62
7 
 10
0
 20
0
 11
1.65
 21
-0.525
 12
1.65
 22
0.525
 13
1.65
 23
0.525
  0
ENDBLK
  8
0
  0
BLOCK
  8
0
  2
LCA3R
 70
0
 10
0
 20
0
  0
SOLID
  8
1
 62
7 
 10
0
 20
0
 11
2.15
 21
-1.15
 12
2.15
 22
1.15
 13
2.15
 23
1.15
  0
ENDBLK
  8
0
  0
BLOCK
  8
0
  2
B200696_00992824
 70
0
 10
0
 20
0
  0
TEXT
  8
1
 40
2.4
 41
0.75
  1
12/14
  7
STANDARD
 72
2
 10
-24.2615881601969
 20
-8.56307872332862
 11
-24.2615881601969
 21
-8.56307872332862
  0
LINE
  8
1
 10
-23.9587391535441
 20
-4.46307935911149
 11
-23.9587391535441
 21
-8.46307935911149
  0
TEXT
  8
1
 40
2.4
 41
0.75
  1
12
  7
STANDARD
 73
3
 10
23.5838008535033
 20
6.9247428501127
 11
23.5838008535033
 21
6.9247428501127
  0
TEXT
  8
1
 40
2.4
 41
0.75
  1
14
  7
STANDARD
 72
2
 73
3
 10
-23.6676568349202
 20
6.95703088727878
 11
-23.6676568349202
 21
6.95703088727878
  0
TEXT
  8
1
 40
2.4
 41
0.75
  1
1
  7
STANDARD
 72
2
 10
0.582610511779779
 20
-8.59441340406283
 11
0.582610511779779
 21
-8.59441340406283
  0
TEXT
  8
1
 40
2.4
 41
0.75
  1
3
  7
STANDARD
 10
4.6
 20
-8.60754518705339
  0
TEXT
  8
1
 40
2.4
 41
0.75
  1
5
  7
STANDARD
 72
2
 10
-4.23477897644043
 20
-8.50754518705338
 11
-4.23477897644043
 21
-8.50754518705338
  0
TEXT
  8
1
 40
2.4
 41
0.75
  1
2
  7
STANDARD
 72
2
 10
3.86522165934245
 20
4.69245481294661
 11
3.86522165934245
 21
4.69245481294661
  0
TEXT
  8
1
 40
2.4
 41
0.75
  1
4
  7
STANDARD
 72
2
 10
-4.33477834065755
 20
4.69245481294661
 11
-4.33477834065755
 21
4.69245481294661
  0
LINE
  8
1
 10
-4
 20
-4.50754518705339
 11
-4
 21
-8.50754518705339
  0
LINE
  8
1
 10
0
 20
-4.50754518705339
 11
0
 21
-8.50754518705339
  0
LINE
  8
1
 10
-4
 20
7.49245481294661
 11
-4
 21
3.49245481294661
  0
LINE
  8
1
 10
4
 20
7.49245481294661
 11
4
 21
3.49245481294661
  0
LINE
  8
1
 10
4
 20
-4.50754518705339
 11
4
 21
-8.50754518705339
  0
LINE
  8
1
 10
18
 20
7.49245481294661
 11
18
 21
3.49245481294661
  0
LINE
  8
1
 10
-18
 20
7.49245481294661
 11
-18
 21
3.49245481294661
  0
LINE
  8
1
 10
28
 20
-4.50754518705339
 11
26
 21
-0.507545187053387
  0
POLYLINE
  8
1
 66
1
  0
VERTEX
  8
1
 10
30
 20
-0.507545187053388
  0
VERTEX
  8
1
 10
24
 20
-0.507545187053388
  0
VERTEX
  8
1
 10
24
 20
-4.50754518705339
  0
VERTEX
  8
1
 10
30
 20
-4.50754518705339
  0
VERTEX
  8
1
 10
30
 20
-0.507545187053388
  0
SEQEND
  8
1
  0
LINE
  8
1
 10
-28
 20
-4.50754518705339
 11
-26
 21
-0.507545187053387
  0
POLYLINE
  8
1
 66
1
  0
VERTEX
  8
1
 10
-30
 20
-0.507545187053388
  0
VERTEX
  8
1
 10
-24
 20
-0.507545187053388
  0
VERTEX
  8
1
 10
-24
 20
-4.50754518705339
  0
VERTEX
  8
1
 10
-30
 20
-4.50754518705339
  0
VERTEX
  8
1
 10
-30
 20
-0.507545187053388
  0
SEQEND
  8
1
  0
LINE
  8
1
 10
22.0685792349727
 20
8.50754518705339
 11
22.0685792349727
 21
6.50754518705339
  0
POLYLINE
  8
1
 66
1
  0
VERTEX
  8
1
 10
24.0685792349727
 20
5.5075451870534
  0
VERTEX
  8
1
 10
21.8185792349727
 20
5.5075451870534
  0
VERTEX
  8
1
 10
21.0685792349727
 20
4.20850708137673
  0
VERTEX
  8
1
 10
20.3185792349727
 20
5.5075451870534
  0
VERTEX
  8
1
 10
18.0685792349727
 20
5.5075451870534
  0
SEQEND
  8
1
  0
POLYLINE
  8
1
 66
1
  0
VERTEX
  8
1
 10
-23
 20
5.49245481294661
  0
VERTEX
  8
1
 10
-22.5833333333333
 20
3.49245481294661
  0
VERTEX
  8
1
 10
-21.75
 20
7.49245481294661
  0
VERTEX
  8
1
 10
-20.9166666666667
 20
3.49245481294661
  0
VERTEX
  8
1
 10
-20.0833333333333
 20
7.49245481294661
  0
VERTEX
  8
1
 10
-19.25
 20
3.49245481294661
  0
VERTEX
  8
1
 10
-18.4166666666667
 20
7.49245481294661
  0
VERTEX
  8
1
 10
-18
 20
5.49245481294661
  0
SEQEND
  8
1
  0
LINE
  8
1
 10
28
 20
2.99245481294661
 11
24
 21
2.99245481294661
  0
LINE
  8
1
 10
28
 20
3.49245481294661
 11
28
 21
0.492454812946613
  0
LINE
  8
1
 10
28
 20
0.992454812946613
 11
24
 21
0.992454812946613
  0
LINE
  8
1
 10
24
 20
3.49245481294661
 11
24
 21
-0.507545187053387
  0
LINE
  8
1
 10
-28
 20
2.99245481294661
 11
-24
 21
2.99245481294661
  0
LINE
  8
1
 10
-28
 20
3.49245481294661
 11
-28
 21
0.492454812946613
  0
LINE
  8
1
 10
-28
 20
0.992454812946613
 11
-24
 21
0.992454812946613
  0
LINE
  8
1
 10
-24
 20
-0.507545187053387
 11
-24
 21
3.49245481294661
  0
POLYLINE
  8
1
 66
1
  0
VERTEX
  8
1
 10
23.9726938881958
 20
-0.508447402415012
  0
VERTEX
  8
1
 10
17.9726938881958
 20
-0.508447402415012
  0
VERTEX
  8
1
 10
17.9726938881958
 20
-4.50844740241501
  0
VERTEX
  8
1
 10
23.9726938881958
 20
-4.50844740241501
  0
VERTEX
  8
1
 10
23.9726938881958
 20
-0.508447402415012
  0
SEQEND
  8
1
  0
LINE
  8
1
 10
23.9726938881958
 20
-0.508447402415012
 11
20.508592273058
 21
-2.50844740241501
  0
LINE
  8
1
 10
23.9726938881958
 20
-4.50844740241501
 11
20.508592273058
 21
-2.50844740241501
  0
POLYLINE
  8
1
 66
1
  0
VERTEX
  8
1
 10
-24
 20
-0.507545187053388
  0
VERTEX
  8
1
 10
-18
 20
-0.507545187053388
  0
VERTEX
  8
1
 10
-18
 20
-4.50754518705339
  0
VERTEX
  8
1
 10
-24
 20
-4.50754518705339
  0
VERTEX
  8
1
 10
-24
 20
-0.507545187053388
  0
SEQEND
  8
1
  0
LINE
  8
1
 10
-24
 20
-0.507545187053387
 11
-20.5358983848622
 21
-2.50754518705339
  0
LINE
  8
1
 10
-24
 20
-4.50754518705339
 11
-20.5358983848622
 21
-2.50754518705339
  0
LINE
  8
1
 10
-16
 20
-4.50754518705339
 11
-16
 21
-2.50754518705339
  0
INSERT
  8
1
  2
LCBP1
 10
-16
 20
-2.50754518705339
 50
90
  0
POLYLINE
  8
1
 66
1
  0
VERTEX
  8
1
 10
-18
 20
3.49245481294661
  0
VERTEX
  8
1
 10
-6
 20
3.49245481294661
  0
VERTEX
  8
1
 10
-6
 20
-4.50754518705339
  0
VERTEX
  8
1
 10
-18
 20
-4.50754518705339
  0
VERTEX
  8
1
 10
-18
 20
3.49245481294661
  0
SEQEND
  8
1
  0
LINE
  8
1
 10
-8
 20
3.49245481294661
 11
-8
 21
-4.50754518705339
  0
INSERT
  8
1
  2
LCA1
 10
-8
 20
-4.50754518705339
 50
-90
  0
LINE
  8
1
 10
-12
 20
-4.50754518705339
 11
-16
 21
3.49245481294661
  0
INSERT
  8
1
  2
LCA1
 10
-16
 20
3.49245481294661
 50
116.565051177078
  0
LINE
  8
1
 10
16
 20
-4.50754518705339
 11
16
 21
-2.50754518705339
  0
INSERT
  8
1
  2
LCBP0
 10
16
 20
-2.50754518705339
 50
90
  0
POLYLINE
  8
1
 66
1
  0
VERTEX
  8
1
 10
6
 20
3.49245481294661
  0
VERTEX
  8
1
 10
18
 20
3.49245481294661
  0
VERTEX
  8
1
 10
18
 20
-4.50754518705339
  0
VERTEX
  8
1
 10
6
 20
-4.50754518705339
  0
VERTEX
  8
1
 10
6
 20
3.49245481294661
  0
SEQEND
  8
1
  0
LINE
  8
1
 10
8
 20
3.49245481294661
 11
8
 21
-4.50754518705339
  0
INSERT
  8
1
  2
LCA1
 10
8
 20
-4.50754518705339
 50
-90
  0
LINE
  8
1
 10
12
 20
-4.50754518705339
 11
16
 21
3.49245481294661
  0
INSERT
  8
1
  2
LCA1
 10
16
 20
3.49245481294661
 50
63.434948822922
  0
LINE
  8
1
 10
0
 20
-4.50754518705339
 11
0
 21
-2.50754518705339
  0
INSERT
  8
1
  2
LCBP1
 10
0
 20
-2.50754518705339
 50
90
  0
POLYLINE
  8
1
 66
1
  0
VERTEX
  8
1
 10
-6
 20
3.49245481294661
  0
VERTEX
  8
1
 10
6
 20
3.49245481294661
  0
VERTEX
  8
1
 10
6
 20
-4.50754518705339
  0
VERTEX
  8
1
 10
-6
 20
-4.50754518705339
  0
VERTEX
  8
1
 10
-6
 20
3.49245481294661
  0
SEQEND
  8
1
  0
LINE
  8
1
 10
-4
 20
3.49245481294661
 11
-4
 21
-4.50754518705339
  0
INSERT
  8
1
  2
LCA1
 10
-4
 20
-4.50754518705339
 50
-90
  0
LINE
  8
1
 10
4
 20
3.49245481294661
 11
4
 21
-4.50754518705339
  0
INSERT
  8
1
  2
LCA1
 10
4
 20
-4.50754518705339
 50
-90
  0
CIRCLE
  8
CONNECTIONS
 10
-23.9587391535441
 20
-8.46307935911149
 40
0
  0
CIRCLE
  8
CONNECTIONS
 10
30
 20
-2.50754518705338
 40
0
  0
CIRCLE
  8
CONNECTIONS
 10
-30.0152482350667
 20
-2.50754518705339
 40
0
  0
CIRCLE
  8
CONNECTIONS
 10
4
 20
7.49245481294661
 40
0
  0
CIRCLE
  8
CONNECTIONS
 10
-4
 20
7.49245481294661
 40
0
  0
CIRCLE
  8
CONNECTIONS
 10
0
 20
-8.50754518705339
 40
0
  0
CIRCLE
  8
CONNECTIONS
 10
-4
 20
-8.50754518705339
 40
0
  0
CIRCLE
  8
CONNECTIONS
 10
4
 20
-8.50754518705339
 40
0
  0
ENDBLK
  8
0
  0
ENDSEC
  0
SECTION
  2
ENTITIES
  0
INSERT
  8
1
  2
B200696_00992824
 10
30
 20
8.50754518705339
  0
ENDSEC
  0
EOF
