  0
SECTION
  2
HEADER
  9
$LIMMIN
 10
0
 20
0
  9
$LIMMAX
 10
52.5
 20
74.25
  9
$EXTMIN
 10
0
 20
82
  9
$EXTMAX
 10
0
 20
28
  0
ENDSEC
  0
SECTION
  2
TABLES
  0
TABLE
  2
LTYPE
 70
9
  0
LTYPE
  2
CONTINUOUS
 70
64
  3
Solid line
 72
65
 73
0
 40
0
  0
LTYPE
  2
DASHED
 70
64
  3
__ __ __ __ __ __ __ __ __
 72
65
 73
2
 40
0.75
 49
0.5
 49
-0.25
  0
LTYPE
  2
DOT
 70
64
  3
...........................
 72
65
 73
2
 40
0.25
 49
0
 49
-0.25
  0
LTYPE
  2
DASHDOT
 70
64
  3
__ . __ . __ . __ . __ . __ . 
 72
65
 73
4
 40
1
 49
0.5
 49
-0.25
 49
0
 49
-0.25
  0
ENDTAB
  0
TABLE
  2
LAYER
 70
10
  0
LAYER
  2
1
 70
0
 62
7
  6
CONTINUOUS
  0
LAYER
  2
CONNECTIONS
 70
0
 62
-7
  6
CONTINUOUS
  0
ENDTAB
  0
ENDSEC
  0
SECTION
  2
BLOCKS
  0
BLOCK
  8
0
  2
TRICON
 70
0
 10
0
 20
0
  0
POLYLINE
  8
1
 70
1
 66
1
 40
0.5
 41
0.5
  0
VERTEX
  8
1
 10
-0.25
 20
0
 42
1
  0
VERTEX
  8
1
 10
0.25
 20
0
 42
1
  0
SEQEND
  8
1
  0
ENDBLK
  8
0
  0
BLOCK
  8
0
  2
TRICONSMALL
 70
0
 10
0
 20
0
  0
POLYLINE
  8
1
 70
1
 66
1
 40
0.25
 41
0.25
  0
VERTEX
  8
1
 10
-0.125
 20
0
 42
1
  0
VERTEX
  8
1
 10
0.125
 20
0
 42
1
  0
SEQEND
  8
1
  0
ENDBLK
  8
0
  0
BLOCK
  8
0
  2
TRICONCIRCLE
 70
0
 10
0
 20
0
  0
CIRCLE
  8
1
 10
0
 20
0
 40
0.5
  0
ENDBLK
  8
0
  0
BLOCK
  8
0
  2
LCBP0
 70
0
 10
0
 20
0
  0
LINE
  8
1
 10
0
 20
-0.46875
 11
0
 21
0.46875
  0
ENDBLK
  8
0
  0
BLOCK
  8
0
  2
LCBP1
 70
0
 10
0
 20
0
  0
LINE
  8
1
 10
0
 20
-0.625
 11
0
 21
0.625
  0
ENDBLK
  8
0
  0
BLOCK
  8
0
  2
LCBP2
 70
0
 10
0
 20
0
  0
LINE
  8
1
 10
0
 20
-0.9375
 11
0
 21
0.9375
  0
ENDBLK
  8
0
  0
BLOCK
  8
0
  2
LCA1
 70
0
 10
0
 20
0
  0
SOLID
  8
1
 62
7 
 10
0
 20
0
 11
-1.4
 21
-0.275
 12
-1.4
 22
0.275
 13
-1.4
 23
0.275
  0
ENDBLK
  8
0
  0
BLOCK
  8
0
  2
LCA2
 70
0
 10
0
 20
0
  0
SOLID
  8
1
 62
7 
 10
0
 20
0
 11
-1.65
 21
-0.525
 12
-1.65
 22
0.525
 13
-1.65
 23
0.525
  0
ENDBLK
  8
0
  0
BLOCK
  8
0
  2
LCA3
 70
0
 10
0
 20
0
  0
SOLID
  8
1
 62
7 
 10
0
 20
0
 11
-2.15
 21
-1.15
 12
-2.15
 22
1.15
 13
-2.15
 23
1.15
  0
ENDBLK
  8
0
  0
BLOCK
  8
0
  2
LCA1R
 70
0
 10
0
 20
0
  0
SOLID
  8
1
 62
7 
 10
0
 20
0
 11
1.4
 21
-0.275
 12
1.4
 22
0.275
 13
1.4
 23
0.275
  0
ENDBLK
  8
0
  0
BLOCK
  8
0
  2
LCA2R
 70
0
 10
0
 20
0
  0
SOLID
  8
1
 62
7 
 10
0
 20
0
 11
1.65
 21
-0.525
 12
1.65
 22
0.525
 13
1.65
 23
0.525
  0
ENDBLK
  8
0
  0
BLOCK
  8
0
  2
LCA3R
 70
0
 10
0
 20
0
  0
SOLID
  8
1
 62
7 
 10
0
 20
0
 11
2.15
 21
-1.15
 12
2.15
 22
1.15
 13
2.15
 23
1.15
  0
ENDBLK
  8
0
  0
BLOCK
  8
0
  2
B85806_00992808
 70
0
 10
0
 20
0
  0
POLYLINE
  8
1
 66
1
  0
VERTEX
  8
1
 10
-41
 20
10
  0
VERTEX
  8
1
 10
41
 20
10
  0
VERTEX
  8
1
 10
41
 20
-10
  0
VERTEX
  8
1
 10
-41
 20
-10
  0
VERTEX
  8
1
 10
-41
 20
10
  0
SEQEND
  8
1
  0
LINE
  8
1
 10
-15
 20
10
 11
-15
 21
4
  0
LINE
  8
1
 10
25
 20
10
 11
25
 21
4
  0
LINE
  8
1
 10
29
 20
-4
 11
29
 21
-10
  0
LINE
  8
1
 10
-11
 20
-4
 11
-11
 21
-10
  0
LINE
  8
1
 10
-15
 20
-4
 11
-15
 21
-10
  0
LINE
  8
1
  6
DOT
 10
37
 20
-6
 11
37
 21
-4
  0
LINE
  8
1
  6
DOT
 10
25
 20
-4
 11
25
 21
-6
  0
LINE
  8
1
  6
DOT
 10
9
 20
-6
 11
9
 21
-4
  0
LINE
  8
1
  6
DOT
 10
-3
 20
-4
 11
-3
 21
-6
  0
LINE
  8
1
  6
DOT
 10
-17
 20
-6
 11
-15
 21
-4
  0
LINE
  8
1
  6
DOT
 10
-15
 20
-4
 11
-13
 21
-6
  0
LINE
  8
1
  6
DOT
 10
-13
 20
-6
 11
37
 21
-6
  0
LINE
  8
1
  6
DOT
 10
-31
 20
-4
 11
-31
 21
-6
  0
LINE
  8
1
  6
DOT
 10
-31
 20
-6
 11
-17
 21
-6
  0
POLYLINE
  8
1
 70
1
 66
1
 40
0.5
 41
0.5
  0
VERTEX
  8
1
 10
24.7196132596685
 20
-5.89226519337016
 42
1
  0
VERTEX
  8
1
 10
25.2196132596685
 20
-5.89226519337016
 42
1
  0
SEQEND
  8
1
  0
POLYLINE
  8
1
 70
1
 66
1
 40
0.5
 41
0.5
  0
VERTEX
  8
1
 10
-3.25
 20
-6
 42
1
  0
VERTEX
  8
1
 10
-2.75
 20
-6
 42
1
  0
SEQEND
  8
1
  0
POLYLINE
  8
1
 70
1
 66
1
 40
0.5
 41
0.5
  0
VERTEX
  8
1
 10
8.73653198653199
 20
-5.98989898989899
 42
1
  0
VERTEX
  8
1
 10
9.23653198653199
 20
-5.98989898989899
 42
1
  0
SEQEND
  8
1
  0
TEXT
  8
1
 40
2.475
 41
0.75
  1
10 (12)
  7
STANDARD
 72
2
 73
2
 10
14.0323431650798
 20
6.4
 11
14.0323431650798
 21
6.4
  0
TEXT
  8
1
 40
2.475
 41
0.75
  1
14
  7
STANDARD
 72
2
 73
2
 10
-32.0676568349203
 20
6.4
 11
-32.0676568349203
 21
6.4
  0
TEXT
  8
1
 40
2.475
 41
0.75
  1
3
  7
STANDARD
 72
2
 73
3
 10
28.8517536458744
 20
-10.8641831619571
 11
28.8517536458744
 21
-10.8641831619571
  0
TEXT
  8
1
 40
2.475
 41
0.75
  1
5
  7
STANDARD
 73
3
 10
-10.5982204141842
 20
-10.8641831619571
 11
-10.5982204141842
 21
-10.8641831619571
  0
TEXT
  8
1
 40
2.475
 41
0.75
  1
1
  7
STANDARD
 72
2
 73
3
 10
-15.3079079650468
 20
-10.8641831619571
 11
-15.3079079650468
 21
-10.8641831619571
  0
TEXT
  8
1
 40
2.475
 41
0.75
  1
2
  7
STANDARD
 72
2
 10
24.8517408859753
 20
11.247601010101
 11
24.8517408859753
 21
11.247601010101
  0
TEXT
  8
1
 40
2.475
 41
0.75
  1
4
  7
STANDARD
 72
2
 10
-15.1482463541256
 20
11.247601010101
 11
-15.1482463541256
 21
11.247601010101
  0
LINE
  8
1
 10
-15
 20
14
 11
-15
 21
10
  0
LINE
  8
1
 10
25
 20
14
 11
25
 21
10
  0
LINE
  8
1
 10
29
 20
-10
 11
29
 21
-14
  0
LINE
  8
1
 10
-11
 20
-10
 11
-11
 21
-14
  0
LINE
  8
1
 10
-15
 20
-10
 11
-15
 21
-14
  0
LINE
  8
1
 10
34
 20
-1.98111412493423
 11
31
 21
-1.98111412493423
  0
LINE
  8
1
 10
34
 20
-1.98111412493423
 11
37
 21
-4
  0
LINE
  8
1
 10
37
 20
0.0188858750657725
 11
34
 21
-1.98111412493423
  0
POLYLINE
  8
1
 66
1
  0
VERTEX
  8
1
 10
31
 20
0.0188858750657737
  0
VERTEX
  8
1
 10
37
 20
0.0188858750657737
  0
VERTEX
  8
1
 10
37
 20
-4
  0
VERTEX
  8
1
 10
31
 20
-4
  0
VERTEX
  8
1
 10
31
 20
0.0188858750657737
  0
SEQEND
  8
1
  0
LINE
  8
1
 10
-6
 20
-1.98111412493423
 11
-9
 21
-1.98111412493423
  0
LINE
  8
1
 10
-6
 20
-1.98111412493423
 11
-3
 21
-4
  0
LINE
  8
1
 10
-3
 20
0.0188858750657725
 11
-6
 21
-1.98111412493423
  0
POLYLINE
  8
1
 66
1
  0
VERTEX
  8
1
 10
-9
 20
0.0188858750657737
  0
VERTEX
  8
1
 10
-3
 20
0.0188858750657737
  0
VERTEX
  8
1
 10
-3
 20
-4
  0
VERTEX
  8
1
 10
-9
 20
-4
  0
VERTEX
  8
1
 10
-9
 20
0.0188858750657737
  0
SEQEND
  8
1
  0
LINE
  8
1
 10
5
 20
-4
 11
7
 21
0
  0
POLYLINE
  8
1
 66
1
  0
VERTEX
  8
1
 10
3
 20
0
  0
VERTEX
  8
1
 10
9
 20
0
  0
VERTEX
  8
1
 10
9
 20
-4
  0
VERTEX
  8
1
 10
3
 20
-4
  0
VERTEX
  8
1
 10
3
 20
0
  0
SEQEND
  8
1
  0
LINE
  8
1
 10
-35
 20
-4
 11
-33
 21
0
  0
POLYLINE
  8
1
 66
1
  0
VERTEX
  8
1
 10
-37
 20
0
  0
VERTEX
  8
1
 10
-31
 20
0
  0
VERTEX
  8
1
 10
-31
 20
-4
  0
VERTEX
  8
1
 10
-37
 20
-4
  0
VERTEX
  8
1
 10
-37
 20
0
  0
SEQEND
  8
1
  0
LINE
  8
1
 10
11.9999500595413
 20
-2
 11
8.99995005954131
 21
-4
  0
LINE
  8
1
 10
8.99995005954131
 20
0
 11
11.9999500595413
 21
-2
  0
POLYLINE
  8
1
 66
1
  0
VERTEX
  8
1
 10
8.99995005954131
 20
0
  0
VERTEX
  8
1
 10
14.9999500595413
 20
0
  0
VERTEX
  8
1
 10
14.9999500595413
 20
-4
  0
VERTEX
  8
1
 10
8.99995005954131
 20
-4
  0
VERTEX
  8
1
 10
8.99995005954131
 20
0
  0
SEQEND
  8
1
  0
LINE
  8
1
 10
-28
 20
-2
 11
-31
 21
-4
  0
LINE
  8
1
 10
-31
 20
0
 11
-28
 21
-2
  0
POLYLINE
  8
1
 66
1
  0
VERTEX
  8
1
 10
-31
 20
0
  0
VERTEX
  8
1
 10
-25
 20
0
  0
VERTEX
  8
1
 10
-25
 20
-4
  0
VERTEX
  8
1
 10
-31
 20
-4
  0
VERTEX
  8
1
 10
-31
 20
0
  0
SEQEND
  8
1
  0
LINE
  8
1
 10
5
 20
3.5
 11
9
 21
3.5
  0
LINE
  8
1
 10
5
 20
4
 11
5
 21
1
  0
LINE
  8
1
 10
5
 20
1.5
 11
9
 21
1.5
  0
LINE
  8
1
 10
9
 20
0
 11
9
 21
4
  0
LINE
  8
1
 10
-35
 20
3.5
 11
-31
 21
3.5
  0
LINE
  8
1
 10
-35
 20
4
 11
-35
 21
1
  0
LINE
  8
1
 10
-35
 20
1.5
 11
-31
 21
1.5
  0
LINE
  8
1
 10
-31
 20
0
 11
-31
 21
4
  0
LINE
  8
1
 10
17
 20
-4
 11
17
 21
-2
  0
INSERT
  8
1
  2
LCBP1
 10
17
 20
-2
 50
90
  0
POLYLINE
  8
1
 66
1
  0
VERTEX
  8
1
 10
15
 20
4
  0
VERTEX
  8
1
 10
23
 20
4
  0
VERTEX
  8
1
 10
23
 20
-4
  0
VERTEX
  8
1
 10
15
 20
-4
  0
VERTEX
  8
1
 10
15
 20
4
  0
SEQEND
  8
1
  0
LINE
  8
1
 10
17
 20
4
 11
21
 21
-4
  0
INSERT
  8
1
  2
LCA1
 10
21
 20
-4
 50
-63.434948822922
  0
LINE
  8
1
 10
-15
 20
-4
 11
-15
 21
-2
  0
INSERT
  8
1
  2
LCBP1
 10
-15
 20
-2
 50
90
  0
POLYLINE
  8
1
 66
1
  0
VERTEX
  8
1
 10
-17
 20
4
  0
VERTEX
  8
1
 10
-9
 20
4
  0
VERTEX
  8
1
 10
-9
 20
-4
  0
VERTEX
  8
1
 10
-17
 20
-4
  0
VERTEX
  8
1
 10
-17
 20
4
  0
SEQEND
  8
1
  0
LINE
  8
1
 10
-15
 20
4
 11
-11
 21
-4
  0
INSERT
  8
1
  2
LCA1
 10
-11
 20
-4
 50
-63.434948822922
  0
POLYLINE
  8
1
 66
1
  0
VERTEX
  8
1
 10
23
 20
4
  0
VERTEX
  8
1
 10
31
 20
4
  0
VERTEX
  8
1
 10
31
 20
-4
  0
VERTEX
  8
1
 10
23
 20
-4
  0
VERTEX
  8
1
 10
23
 20
4
  0
SEQEND
  8
1
  0
LINE
  8
1
 10
29
 20
-4
 11
29
 21
-2
  0
INSERT
  8
1
  2
LCBP1
 10
29
 20
-2
 50
90
  0
LINE
  8
1
 10
25
 20
-4
 11
25
 21
4
  0
INSERT
  8
1
  2
LCA1
 10
25
 20
4
 50
90
  0
POLYLINE
  8
1
 66
1
  0
VERTEX
  8
1
 10
-25
 20
4
  0
VERTEX
  8
1
 10
-17
 20
4
  0
VERTEX
  8
1
 10
-17
 20
-4
  0
VERTEX
  8
1
 10
-25
 20
-4
  0
VERTEX
  8
1
 10
-25
 20
4
  0
SEQEND
  8
1
  0
LINE
  8
1
 10
-19
 20
-4
 11
-19
 21
-2
  0
INSERT
  8
1
  2
LCBP1
 10
-19
 20
-2
 50
90
  0
LINE
  8
1
 10
-23
 20
-4
 11
-23
 21
4
  0
INSERT
  8
1
  2
LCA1
 10
-23
 20
4
 50
90
  0
CIRCLE
  8
CONNECTIONS
 10
-15.013468013468
 20
-13.989898989899
 40
0
  0
CIRCLE
  8
CONNECTIONS
 10
28.986531986532
 20
-13.989898989899
 40
0
  0
CIRCLE
  8
CONNECTIONS
 10
-11.013468013468
 20
-13.989898989899
 40
0
  0
CIRCLE
  8
CONNECTIONS
 10
-15.013468013468
 20
14.010101010101
 40
0
  0
CIRCLE
  8
CONNECTIONS
 10
24.9865192266328
 20
14.010101010101
 40
0
  0
CIRCLE
  8
CONNECTIONS
 10
3
 20
-2
 40
0
  0
CIRCLE
  8
CONNECTIONS
 10
-37
 20
-2
 40
0
  0
ENDBLK
  8
0
  0
ENDSEC
  0
SECTION
  2
ENTITIES
  0
INSERT
  8
1
  2
B85806_00992808
 10
41
 20
14
  0
ENDSEC
  0
EOF
