  0
SECTION
  2
HEADER
  9
$LIMMIN
 10
0
 20
0
  9
$LIMMAX
 10
52.5
 20
74.25
  9
$EXTMIN
 10
0
 20
30.0000191747443
  9
$EXTMAX
 10
0
 20
25.9999808252557
  0
ENDSEC
  0
SECTION
  2
TABLES
  0
TABLE
  2
LTYPE
 70
9
  0
LTYPE
  2
CONTINUOUS
 70
64
  3
Solid line
 72
65
 73
0
 40
0
  0
LTYPE
  2
DASHED
 70
64
  3
__ __ __ __ __ __ __ __ __
 72
65
 73
2
 40
0.75
 49
0.5
 49
-0.25
  0
LTYPE
  2
DOT
 70
64
  3
...........................
 72
65
 73
2
 40
0.25
 49
0
 49
-0.25
  0
LTYPE
  2
DASHDOT
 70
64
  3
__ . __ . __ . __ . __ . __ . 
 72
65
 73
4
 40
1
 49
0.5
 49
-0.25
 49
0
 49
-0.25
  0
ENDTAB
  0
TABLE
  2
LAYER
 70
10
  0
LAYER
  2
1
 70
0
 62
7
  6
CONTINUOUS
  0
LAYER
  2
CONNECTIONS
 70
0
 62
-7
  6
CONTINUOUS
  0
ENDTAB
  0
ENDSEC
  0
SECTION
  2
BLOCKS
  0
BLOCK
  8
0
  2
TRICON
 70
0
 10
0
 20
0
  0
POLYLINE
  8
1
 70
1
 66
1
 40
0.5
 41
0.5
  0
VERTEX
  8
1
 10
-0.25
 20
0
 42
1
  0
VERTEX
  8
1
 10
0.25
 20
0
 42
1
  0
SEQEND
  8
1
  0
ENDBLK
  8
0
  0
BLOCK
  8
0
  2
TRICONSMALL
 70
0
 10
0
 20
0
  0
POLYLINE
  8
1
 70
1
 66
1
 40
0.25
 41
0.25
  0
VERTEX
  8
1
 10
-0.125
 20
0
 42
1
  0
VERTEX
  8
1
 10
0.125
 20
0
 42
1
  0
SEQEND
  8
1
  0
ENDBLK
  8
0
  0
BLOCK
  8
0
  2
TRICONCIRCLE
 70
0
 10
0
 20
0
  0
CIRCLE
  8
1
 10
0
 20
0
 40
0.5
  0
ENDBLK
  8
0
  0
BLOCK
  8
0
  2
LCBP0
 70
0
 10
0
 20
0
  0
LINE
  8
1
 10
0
 20
-0.46875
 11
0
 21
0.46875
  0
ENDBLK
  8
0
  0
BLOCK
  8
0
  2
LCBP1
 70
0
 10
0
 20
0
  0
LINE
  8
1
 10
0
 20
-0.625
 11
0
 21
0.625
  0
ENDBLK
  8
0
  0
BLOCK
  8
0
  2
LCBP2
 70
0
 10
0
 20
0
  0
LINE
  8
1
 10
0
 20
-0.9375
 11
0
 21
0.9375
  0
ENDBLK
  8
0
  0
BLOCK
  8
0
  2
LCA1
 70
0
 10
0
 20
0
  0
SOLID
  8
1
 62
7 
 10
0
 20
0
 11
-1.4
 21
-0.275
 12
-1.4
 22
0.275
 13
-1.4
 23
0.275
  0
ENDBLK
  8
0
  0
BLOCK
  8
0
  2
LCA2
 70
0
 10
0
 20
0
  0
SOLID
  8
1
 62
7 
 10
0
 20
0
 11
-1.65
 21
-0.525
 12
-1.65
 22
0.525
 13
-1.65
 23
0.525
  0
ENDBLK
  8
0
  0
BLOCK
  8
0
  2
LCA3
 70
0
 10
0
 20
0
  0
SOLID
  8
1
 62
7 
 10
0
 20
0
 11
-2.15
 21
-1.15
 12
-2.15
 22
1.15
 13
-2.15
 23
1.15
  0
ENDBLK
  8
0
  0
BLOCK
  8
0
  2
LCA1R
 70
0
 10
0
 20
0
  0
SOLID
  8
1
 62
7 
 10
0
 20
0
 11
1.4
 21
-0.275
 12
1.4
 22
0.275
 13
1.4
 23
0.275
  0
ENDBLK
  8
0
  0
BLOCK
  8
0
  2
LCA2R
 70
0
 10
0
 20
0
  0
SOLID
  8
1
 62
7 
 10
0
 20
0
 11
1.65
 21
-0.525
 12
1.65
 22
0.525
 13
1.65
 23
0.525
  0
ENDBLK
  8
0
  0
BLOCK
  8
0
  2
LCA3R
 70
0
 10
0
 20
0
  0
SOLID
  8
1
 62
7 
 10
0
 20
0
 11
2.15
 21
-1.15
 12
2.15
 22
1.15
 13
2.15
 23
1.15
  0
ENDBLK
  8
0
  0
BLOCK
  8
0
  2
B2852_00992806
 70
0
 10
0
 20
0
  0
LINE
  8
1
 10
1.99999041262783
 20
-8.99999041262783
 11
1.99999041262783
 21
-12.9999904126278
  0
LINE
  8
1
 10
-14.0000095873722
 20
-8.99999041262783
 11
-14.0000095873722
 21
-12.9999904126278
  0
LINE
  8
1
 10
8.99999041262783
 20
7.00000958737217
 11
8.99999041262783
 21
4.00000958737217
  0
LINE
  8
1
 10
-10.0000095873722
 20
0.500009587372171
 11
-10.0000095873722
 21
1.50000958737217
  0
SOLID
  8
1
 10
-10.0000095873722
 20
1.50000958737217
 11
-10.0000095873722
 21
0.500009587372173
 12
-12.0000095873722
 22
0.500009587372173
 13
-12.0000095873722
 23
0.500009587372173
  0
SOLID
  8
1
 10
-12.0000095873722
 20
5.50000958737217
 11
-10.0000095873722
 21
5.50000958737217
 12
-10.0000095873722
 22
4.50000958737217
 13
-10.0000095873722
 23
4.50000958737217
  0
SOLID
  8
1
 10
-11.0000095873722
 20
1.50000958737217
 11
-10.0000095873722
 21
1.50000958737217
 12
-12.0000095873722
 22
0.500009587372173
 13
-12.0000095873722
 23
0.500009587372173
  0
SOLID
  8
1
 10
-12.0000095873722
 20
5.50000958737217
 11
-10.0000095873722
 21
4.50000958737217
 12
-11.0000095873722
 22
4.50000958737217
 13
-11.0000095873722
 23
4.50000958737217
  0
SOLID
  8
1
 10
-11.0000095873722
 20
4.50000958737217
 11
-11.0000095873722
 21
1.50000958737217
 12
-12.0000095873722
 22
0.500009587372173
 13
-12.0000095873722
 23
0.500009587372173
  0
SOLID
  8
1
 10
-12.0000095873722
 20
0.500009587372173
 11
-12.0000095873722
 21
5.50000958737217
 12
-11.0000095873722
 22
4.50000958737217
 13
-11.0000095873722
 23
4.50000958737217
  0
POLYLINE
  8
1
 66
1
  0
VERTEX
  8
1
 10
-13.0000095873722
 20
7.00000958737217
  0
VERTEX
  8
1
 10
-9.00000958737217
 20
7.00000958737217
  0
VERTEX
  8
1
 10
-9.00000958737217
 20
-0.999990412627831
  0
VERTEX
  8
1
 10
-13.0000095873722
 20
-0.999990412627831
  0
VERTEX
  8
1
 10
-13.0000095873722
 20
7.00000958737217
  0
SEQEND
  8
1
  0
LINE
  8
1
 10
2.99999041262783
 20
7.00000958737217
 11
2.99999041262783
 21
4.00000958737217
  0
LINE
  8
1
 10
2.99999041262783
 20
2.00000958737217
 11
2.99999041262783
 21
-0.999990412627829
  0
LINE
  8
1
 10
-15.0000095873722
 20
7.00000958737217
 11
-15.0000095873722
 21
-0.999990412627829
  0
LINE
  8
1
 10
-15.0000095873722
 20
7.00000958737217
 11
2.99999041262783
 21
7.00000958737217
  0
LINE
  8
1
 10
-15.0000095873722
 20
-0.999990412627829
 11
2.99999041262783
 21
-0.999990412627829
  0
POLYLINE
  8
1
 66
1
  0
VERTEX
  8
1
 10
-15.0000095873722
 20
-0.999990412627827
  0
VERTEX
  8
1
 10
2.99999041262783
 20
-0.999990412627827
  0
VERTEX
  8
1
 10
2.99999041262783
 20
-8.99999041262783
  0
VERTEX
  8
1
 10
-15.0000095873722
 20
-8.99999041262783
  0
VERTEX
  8
1
 10
-15.0000095873722
 20
-0.999990412627827
  0
SEQEND
  8
1
  0
POLYLINE
  8
1
 66
1
  0
VERTEX
  8
1
 10
-9.00000958737217
 20
4.00000958737217
  0
VERTEX
  8
1
 10
8.99999041262783
 20
4.00000958737217
  0
VERTEX
  8
1
 10
8.99999041262783
 20
2.00000958737217
  0
VERTEX
  8
1
 10
-9.00000958737217
 20
2.00000958737217
  0
SEQEND
  8
1
  0
LINE
  8
1
 10
-10.1333429207055
 20
-5.89999041262783
 11
-1.13334292070551
 21
-3.89999041262783
  0
INSERT
  8
1
  2
LCA1
 10
-1.13334292070551
 20
-3.89999041262783
 50
12.5288077091515
  0
POLYLINE
  8
1
 66
1
  0
VERTEX
  8
1
 10
-8.00000958737217
 20
-2.99999041262783
  0
VERTEX
  8
1
 10
-4.00000958737217
 20
-2.99999041262783
  0
VERTEX
  8
1
 10
-4.00000958737217
 20
-6.99999041262783
  0
VERTEX
  8
1
 10
-8.00000958737217
 20
-6.99999041262783
  0
VERTEX
  8
1
 10
-8.00000958737217
 20
-2.99999041262783
  0
SEQEND
  8
1
  0
ARC
  8
1
 10
10.6633705627452
 20
8.58612566269016
 40
0.824621125123534
 50
196.339530500047
 51
317.303287032121
  0
POLYLINE
  8
1
 66
1
  0
VERTEX
  8
1
 10
10.7000095873722
 20
8.58332374596116
  0
VERTEX
  8
1
 10
11.3000095873722
 20
8.58332374596116
  0
SEQEND
  8
1
  0
ARC
  8
1
 10
10.7238688805896
 20
8.6560186220416
 40
0.894427190999916
 50
47.6225438058942
 51
201.057492628817
  0
LINE
  8
1
 10
11.3000095873722
 20
8.58332374596116
 11
11.3000095873722
 21
8.08332374596116
  0
ARC
  8
1
 10
13.5000095873722
 20
11.4999904126278
 40
1
 50
0
 51
180
  0
LINE
  8
1
 10
14.5000095873722
 20
10.4999904126278
 11
14.5000095873722
 21
11.4999904126278
  0
LINE
  8
1
 10
12.5000095873722
 20
10.4999904126278
 11
12.5000095873722
 21
11.4999904126278
  0
POLYLINE
  8
1
 66
1
  0
VERTEX
  8
1
 10
9.00000958737217
 20
12.9999904126278
  0
VERTEX
  8
1
 10
15.0000095873722
 20
12.9999904126278
  0
VERTEX
  8
1
 10
15.0000095873722
 20
6.99999041262783
  0
VERTEX
  8
1
 10
9.00000958737217
 20
6.99999041262783
  0
VERTEX
  8
1
 10
9.00000958737217
 20
12.9999904126278
  0
SEQEND
  8
1
  0
LINE
  8
1
 10
9.00000958737217
 20
12.9999904126278
 11
15.0000095873722
 21
6.99999041262783
  0
CIRCLE
  8
CONNECTIONS
 10
11.9999904126278
 20
13.0000095873722
 40
0
  0
CIRCLE
  8
CONNECTIONS
 10
-14.0000095873722
 20
-12.9999904126278
 40
0
  0
CIRCLE
  8
CONNECTIONS
 10
1.99999041262783
 20
-12.9999904126278
 40
0
  0
ENDBLK
  8
0
  0
ENDSEC
  0
SECTION
  2
ENTITIES
  0
INSERT
  8
1
  2
B2852_00992806
 10
15.0000095873722
 20
12.9999904126278
  0
ENDSEC
  0
EOF
