  0
SECTION
  2
HEADER
  9
$LIMMIN
 10
0
 20
0
  9
$LIMMAX
 10
52.5
 20
74.25
  9
$EXTMIN
 10
0
 20
38
  9
$EXTMAX
 10
0
 20
26
  0
ENDSEC
  0
SECTION
  2
TABLES
  0
TABLE
  2
LTYPE
 70
9
  0
LTYPE
  2
CONTINUOUS
 70
64
  3
Solid line
 72
65
 73
0
 40
0
  0
LTYPE
  2
DASHED
 70
64
  3
__ __ __ __ __ __ __ __ __
 72
65
 73
2
 40
0.75
 49
0.5
 49
-0.25
  0
LTYPE
  2
DOT
 70
64
  3
...........................
 72
65
 73
2
 40
0.25
 49
0
 49
-0.25
  0
LTYPE
  2
DASHDOT
 70
64
  3
__ . __ . __ . __ . __ . __ . 
 72
65
 73
4
 40
1
 49
0.5
 49
-0.25
 49
0
 49
-0.25
  0
ENDTAB
  0
TABLE
  2
LAYER
 70
10
  0
LAYER
  2
1
 70
0
 62
7
  6
CONTINUOUS
  0
LAYER
  2
CONNECTIONS
 70
0
 62
-7
  6
CONTINUOUS
  0
ENDTAB
  0
ENDSEC
  0
SECTION
  2
BLOCKS
  0
BLOCK
  8
0
  2
TRICON
 70
0
 10
0
 20
0
  0
POLYLINE
  8
1
 70
1
 66
1
 40
0.5
 41
0.5
  0
VERTEX
  8
1
 10
-0.25
 20
0
 42
1
  0
VERTEX
  8
1
 10
0.25
 20
0
 42
1
  0
SEQEND
  8
1
  0
ENDBLK
  8
0
  0
BLOCK
  8
0
  2
TRICONSMALL
 70
0
 10
0
 20
0
  0
POLYLINE
  8
1
 70
1
 66
1
 40
0.25
 41
0.25
  0
VERTEX
  8
1
 10
-0.125
 20
0
 42
1
  0
VERTEX
  8
1
 10
0.125
 20
0
 42
1
  0
SEQEND
  8
1
  0
ENDBLK
  8
0
  0
BLOCK
  8
0
  2
TRICONCIRCLE
 70
0
 10
0
 20
0
  0
CIRCLE
  8
1
 10
0
 20
0
 40
0.5
  0
ENDBLK
  8
0
  0
BLOCK
  8
0
  2
LCBP0
 70
0
 10
0
 20
0
  0
LINE
  8
1
 10
0
 20
-0.46875
 11
0
 21
0.46875
  0
ENDBLK
  8
0
  0
BLOCK
  8
0
  2
LCBP1
 70
0
 10
0
 20
0
  0
LINE
  8
1
 10
0
 20
-0.625
 11
0
 21
0.625
  0
ENDBLK
  8
0
  0
BLOCK
  8
0
  2
LCBP2
 70
0
 10
0
 20
0
  0
LINE
  8
1
 10
0
 20
-0.9375
 11
0
 21
0.9375
  0
ENDBLK
  8
0
  0
BLOCK
  8
0
  2
LCA1
 70
0
 10
0
 20
0
  0
SOLID
  8
1
 62
7 
 10
0
 20
0
 11
-1.4
 21
-0.275
 12
-1.4
 22
0.275
 13
-1.4
 23
0.275
  0
ENDBLK
  8
0
  0
BLOCK
  8
0
  2
LCA2
 70
0
 10
0
 20
0
  0
SOLID
  8
1
 62
7 
 10
0
 20
0
 11
-1.65
 21
-0.525
 12
-1.65
 22
0.525
 13
-1.65
 23
0.525
  0
ENDBLK
  8
0
  0
BLOCK
  8
0
  2
LCA3
 70
0
 10
0
 20
0
  0
SOLID
  8
1
 62
7 
 10
0
 20
0
 11
-2.15
 21
-1.15
 12
-2.15
 22
1.15
 13
-2.15
 23
1.15
  0
ENDBLK
  8
0
  0
BLOCK
  8
0
  2
LCA1R
 70
0
 10
0
 20
0
  0
SOLID
  8
1
 62
7 
 10
0
 20
0
 11
1.4
 21
-0.275
 12
1.4
 22
0.275
 13
1.4
 23
0.275
  0
ENDBLK
  8
0
  0
BLOCK
  8
0
  2
LCA2R
 70
0
 10
0
 20
0
  0
SOLID
  8
1
 62
7 
 10
0
 20
0
 11
1.65
 21
-0.525
 12
1.65
 22
0.525
 13
1.65
 23
0.525
  0
ENDBLK
  8
0
  0
BLOCK
  8
0
  2
LCA3R
 70
0
 10
0
 20
0
  0
SOLID
  8
1
 62
7 
 10
0
 20
0
 11
2.15
 21
-1.15
 12
2.15
 22
1.15
 13
2.15
 23
1.15
  0
ENDBLK
  8
0
  0
BLOCK
  8
0
  2
B49447_00992275
 70
0
 10
0
 20
0
  0
POLYLINE
  8
1
 66
1
  0
VERTEX
  8
1
 10
-19
 20
9
  0
VERTEX
  8
1
 10
19
 20
9
  0
VERTEX
  8
1
 10
19
 20
-9
  0
VERTEX
  8
1
 10
-19
 20
-9
  0
VERTEX
  8
1
 10
-19
 20
9
  0
SEQEND
  8
1
  0
TEXT
  8
1
 40
2.475
 41
0.75
  1
12
  7
STANDARD
 72
2
 10
-9
 20
3.2375
 11
-9
 21
3.2375
  0
TEXT
  8
1
 40
2.475
 41
0.75
  1
12
  7
STANDARD
 72
2
 73
3
 10
-14.8
 20
-9.61875
 11
-14.8
 21
-9.61875
  0
TEXT
  8
1
 40
2.475
 41
0.75
  1
1
  7
STANDARD
 72
2
 73
3
 10
5.4
 20
-9.61875
 11
5.4
 21
-9.61875
  0
TEXT
  8
1
 40
2.475
 41
0.75
  1
3
  7
STANDARD
 73
3
 10
10.7
 20
-9.61875
 11
10.7
 21
-9.61875
  0
LINE
  8
1
 10
10
 20
-9
 11
10
 21
-13
  0
LINE
  8
1
 10
6
 20
-9
 11
6
 21
-13
  0
LINE
  8
1
 10
-14
 20
-13
 11
-14
 21
-9
  0
TEXT
  8
1
 40
2.475
 41
0.75
  1
2
  7
STANDARD
 72
2
 73
3
 10
5.7
 20
13.38125
 11
5.7
 21
13.38125
  0
LINE
  8
1
 10
6
 20
13
 11
6
 21
9
  0
LINE
  8
1
 10
-14
 20
-6
 11
-14
 21
-9
  0
LINE
  8
1
 10
6
 20
-2
 11
6
 21
-9
  0
LINE
  8
1
 10
10
 20
-2
 11
10
 21
-9
  0
LINE
  8
1
 10
6
 20
9
 11
6
 21
6
  0
POLYLINE
  8
1
 70
1
 66
1
 40
0.5
 41
0.5
  0
VERTEX
  8
1
 10
5.75
 20
-6
 42
1
  0
VERTEX
  8
1
 10
6.25
 20
-6
 42
1
  0
SEQEND
  8
1
  0
LINE
  8
1
 10
6
 20
-6
 11
2
 21
-6
  0
POLYLINE
  8
1
 70
1
 66
1
 40
0.5
 41
0.5
  0
VERTEX
  8
1
 10
-6.25
 20
-6
 42
1
  0
VERTEX
  8
1
 10
-5.75
 20
-6
 42
1
  0
SEQEND
  8
1
  0
LINE
  8
1
 10
-6
 20
-2
 11
-6
 21
-6
  0
POLYLINE
  8
1
 66
1
  0
VERTEX
  8
1
 10
17
 20
0
  0
VERTEX
  8
1
 10
16.5833333333333
 20
-2
  0
VERTEX
  8
1
 10
15.75
 20
2
  0
VERTEX
  8
1
 10
14.9166666666667
 20
-2
  0
VERTEX
  8
1
 10
14.0833333333333
 20
2
  0
VERTEX
  8
1
 10
13.25
 20
-2
  0
VERTEX
  8
1
 10
12.4166666666667
 20
2
  0
VERTEX
  8
1
 10
12
 20
0
  0
SEQEND
  8
1
  0
LINE
  8
1
 10
-6
 20
-6
 11
-3.5
 21
-6
  0
POLYLINE
  8
1
 66
1
  0
VERTEX
  8
1
 10
-2.96666666666667
 20
-8
  0
VERTEX
  8
1
 10
-0.966666666666664
 20
-6
  0
VERTEX
  8
1
 10
-2.96666666666667
 20
-4
  0
SEQEND
  8
1
  0
CIRCLE
  8
1
 10
-2.5
 20
-6
 40
1
  0
LINE
  8
1
 10
-0.999999999999998
 20
-6
 11
2
 21
-6
  0
LINE
  8
1
 10
-6
 20
-6
 11
-8.46666666666667
 21
-6
  0
POLYLINE
  8
1
 66
1
  0
VERTEX
  8
1
 10
-9
 20
-4
  0
VERTEX
  8
1
 10
-11
 20
-6
  0
VERTEX
  8
1
 10
-9
 20
-8
  0
SEQEND
  8
1
  0
CIRCLE
  8
1
 10
-9.46666666666667
 20
-6
 40
1
  0
LINE
  8
1
 10
-10.9666666666667
 20
-6
 11
-13.9666666666667
 21
-6
  0
LINE
  8
1
 10
-14
 20
-2
 11
-12
 21
2
  0
POLYLINE
  8
1
 66
1
  0
VERTEX
  8
1
 10
-16
 20
2
  0
VERTEX
  8
1
 10
-10
 20
2
  0
VERTEX
  8
1
 10
-10
 20
-2
  0
VERTEX
  8
1
 10
-16
 20
-2
  0
VERTEX
  8
1
 10
-16
 20
2
  0
SEQEND
  8
1
  0
LINE
  8
1
 10
-10
 20
2
 11
-10
 21
-2
  0
POLYLINE
  8
1
 66
1
  0
VERTEX
  8
1
 10
-10
 20
2
  0
VERTEX
  8
1
 10
-4
 20
2
  0
VERTEX
  8
1
 10
-4
 20
-2
  0
VERTEX
  8
1
 10
-10
 20
-2
  0
VERTEX
  8
1
 10
-10
 20
2
  0
SEQEND
  8
1
  0
LINE
  8
1
 10
-10
 20
2
 11
-6.53589838486224
 21
0
  0
LINE
  8
1
 10
-10
 20
-2
 11
-6.53589838486224
 21
0
  0
LINE
  8
1
 10
6
 20
-2
 11
6
 21
0
  0
INSERT
  8
1
  2
LCBP1
 10
6
 20
0
 50
90
  0
POLYLINE
  8
1
 66
1
  0
VERTEX
  8
1
 10
4
 20
6
  0
VERTEX
  8
1
 10
12
 20
6
  0
VERTEX
  8
1
 10
12
 20
-2
  0
VERTEX
  8
1
 10
4
 20
-2
  0
VERTEX
  8
1
 10
4
 20
6
  0
SEQEND
  8
1
  0
LINE
  8
1
 10
6
 20
6
 11
10
 21
-2
  0
INSERT
  8
1
  2
LCA1
 10
10
 20
-2
 50
-63.434948822922
  0
POLYLINE
  8
1
 66
1
  0
VERTEX
  8
1
 10
-4
 20
6
  0
VERTEX
  8
1
 10
4
 20
6
  0
VERTEX
  8
1
 10
4
 20
-2
  0
VERTEX
  8
1
 10
-4
 20
-2
  0
VERTEX
  8
1
 10
-4
 20
6
  0
SEQEND
  8
1
  0
LINE
  8
1
 10
2
 20
-2
 11
2
 21
0
  0
INSERT
  8
1
  2
LCBP1
 10
2
 20
0
 50
90
  0
LINE
  8
1
 10
-2
 20
-2
 11
-2
 21
6
  0
INSERT
  8
1
  2
LCA1
 10
-2
 20
6
 50
90
  0
CIRCLE
  8
CONNECTIONS
 10
-16
 20
0
 40
0
  0
CIRCLE
  8
CONNECTIONS
 10
-14
 20
-13
 40
0
  0
CIRCLE
  8
CONNECTIONS
 10
6
 20
-13
 40
0
  0
CIRCLE
  8
CONNECTIONS
 10
10
 20
-13
 40
0
  0
CIRCLE
  8
CONNECTIONS
 10
6
 20
13
 40
0
  0
ENDBLK
  8
0
  0
ENDSEC
  0
SECTION
  2
ENTITIES
  0
INSERT
  8
1
  2
B49447_00992275
 10
19
 20
13
  0
ENDSEC
  0
EOF
