  0
SECTION
  2
HEADER
  9
$LIMMIN
 10
0
 20
0
  9
$LIMMAX
 10
52.5
 20
74.25
  9
$EXTMIN
 10
0
 20
100
  9
$EXTMAX
 10
0
 20
104.098431587219
  0
ENDSEC
  0
SECTION
  2
TABLES
  0
TABLE
  2
LTYPE
 70
9
  0
LTYPE
  2
CONTINUOUS
 70
64
  3
Solid line
 72
65
 73
0
 40
0
  0
LTYPE
  2
DASHED
 70
64
  3
__ __ __ __ __ __ __ __ __
 72
65
 73
2
 40
0.75
 49
0.5
 49
-0.25
  0
LTYPE
  2
DOT
 70
64
  3
...........................
 72
65
 73
2
 40
0.25
 49
0
 49
-0.25
  0
LTYPE
  2
DASHDOT
 70
64
  3
__ . __ . __ . __ . __ . __ . 
 72
65
 73
4
 40
1
 49
0.5
 49
-0.25
 49
0
 49
-0.25
  0
ENDTAB
  0
TABLE
  2
LAYER
 70
10
  0
LAYER
  2
1
 70
0
 62
7
  6
CONTINUOUS
  0
LAYER
  2
CONNECTIONS
 70
0
 62
-7
  6
CONTINUOUS
  0
ENDTAB
  0
ENDSEC
  0
SECTION
  2
BLOCKS
  0
BLOCK
  8
0
  2
TRICON
 70
0
 10
0
 20
0
  0
POLYLINE
  8
1
 70
1
 66
1
 40
0.5
 41
0.5
  0
VERTEX
  8
1
 10
-0.25
 20
0
 42
1
  0
VERTEX
  8
1
 10
0.25
 20
0
 42
1
  0
SEQEND
  8
1
  0
ENDBLK
  8
0
  0
BLOCK
  8
0
  2
TRICONSMALL
 70
0
 10
0
 20
0
  0
POLYLINE
  8
1
 70
1
 66
1
 40
0.25
 41
0.25
  0
VERTEX
  8
1
 10
-0.125
 20
0
 42
1
  0
VERTEX
  8
1
 10
0.125
 20
0
 42
1
  0
SEQEND
  8
1
  0
ENDBLK
  8
0
  0
BLOCK
  8
0
  2
TRICONCIRCLE
 70
0
 10
0
 20
0
  0
CIRCLE
  8
1
 10
0
 20
0
 40
0.5
  0
ENDBLK
  8
0
  0
BLOCK
  8
0
  2
LCBP0
 70
0
 10
0
 20
0
  0
LINE
  8
1
 10
0
 20
-0.46875
 11
0
 21
0.46875
  0
ENDBLK
  8
0
  0
BLOCK
  8
0
  2
LCBP1
 70
0
 10
0
 20
0
  0
LINE
  8
1
 10
0
 20
-0.625
 11
0
 21
0.625
  0
ENDBLK
  8
0
  0
BLOCK
  8
0
  2
LCBP2
 70
0
 10
0
 20
0
  0
LINE
  8
1
 10
0
 20
-0.9375
 11
0
 21
0.9375
  0
ENDBLK
  8
0
  0
BLOCK
  8
0
  2
LCA1
 70
0
 10
0
 20
0
  0
SOLID
  8
1
 62
7 
 10
0
 20
0
 11
-1.4
 21
-0.275
 12
-1.4
 22
0.275
 13
-1.4
 23
0.275
  0
ENDBLK
  8
0
  0
BLOCK
  8
0
  2
LCA2
 70
0
 10
0
 20
0
  0
SOLID
  8
1
 62
7 
 10
0
 20
0
 11
-1.65
 21
-0.525
 12
-1.65
 22
0.525
 13
-1.65
 23
0.525
  0
ENDBLK
  8
0
  0
BLOCK
  8
0
  2
LCA3
 70
0
 10
0
 20
0
  0
SOLID
  8
1
 62
7 
 10
0
 20
0
 11
-2.15
 21
-1.15
 12
-2.15
 22
1.15
 13
-2.15
 23
1.15
  0
ENDBLK
  8
0
  0
BLOCK
  8
0
  2
LCA1R
 70
0
 10
0
 20
0
  0
SOLID
  8
1
 62
7 
 10
0
 20
0
 11
1.4
 21
-0.275
 12
1.4
 22
0.275
 13
1.4
 23
0.275
  0
ENDBLK
  8
0
  0
BLOCK
  8
0
  2
LCA2R
 70
0
 10
0
 20
0
  0
SOLID
  8
1
 62
7 
 10
0
 20
0
 11
1.65
 21
-0.525
 12
1.65
 22
0.525
 13
1.65
 23
0.525
  0
ENDBLK
  8
0
  0
BLOCK
  8
0
  2
LCA3R
 70
0
 10
0
 20
0
  0
SOLID
  8
1
 62
7 
 10
0
 20
0
 11
2.15
 21
-1.15
 12
2.15
 22
1.15
 13
2.15
 23
1.15
  0
ENDBLK
  8
0
  0
BLOCK
  8
0
  2
B2151_00992265
 70
0
 10
0
 20
0
  0
POLYLINE
  8
1
 66
1
  0
VERTEX
  8
1
 10
-50
 20
50.7856750488281
  0
VERTEX
  8
1
 10
50
 20
50.7856750488281
  0
VERTEX
  8
1
 10
50
 20
-49.2143249511719
  0
VERTEX
  8
1
 10
-50
 20
-49.2143249511719
  0
VERTEX
  8
1
 10
-50
 20
50.7856750488281
  0
SEQEND
  8
1
  0
LINE
  8
1
 10
-6
 20
3.78567504882813
 11
-32.1203904749168
 21
17.6555071469331
  0
TEXT
  8
1
 40
10.8
 41
0.75
  1
3
  7
STANDARD
 73
2
 10
20
 20
30.4586697076425
 11
20
 21
30.4586697076425
  0
TEXT
  8
1
 40
10.8
 41
0.75
  1
2
  7
STANDARD
 72
1
 10
-1.04100958036092
 20
36.4825538635254
 11
-1.04100958036092
 21
36.4825538635254
  0
TEXT
  8
1
 40
10.8
 41
0.75
  1
8
  7
STANDARD
 72
2
 73
2
 10
-31.4086405436198
 20
20.4341144561768
 11
-31.4086405436198
 21
20.4341144561768
  0
TEXT
  8
1
 40
10.8
 41
0.75
  1
1
  7
STANDARD
 72
2
 73
2
 10
-30.6854299487399
 20
0.00603002541898334
 11
-30.6854299487399
 21
0.00603002541898334
  0
TEXT
  8
1
 40
10.8
 41
0.75
  1
7
  7
STANDARD
 72
2
 73
2
 10
-23.4086405436198
 20
-29.5658855438232
 11
-23.4086405436198
 21
-29.5658855438232
  0
TEXT
  8
1
 40
10.8
 41
0.75
  1
6
  7
STANDARD
 72
1
 73
2
 10
0.795679728190104
 20
-41.5658855438232
 11
0.795679728190104
 21
-41.5658855438232
  0
TEXT
  8
1
 40
10.8
 41
0.75
  1
5
  7
STANDARD
 73
2
 10
23.1366634368896
 20
-29.8420923550924
 11
23.1366634368896
 21
-29.8420923550924
  0
TEXT
  8
1
 40
10.8
 41
0.75
  1
4
  7
STANDARD
 73
3
 10
32.1255440546618
 20
8.50891508275516
 11
32.1255440546618
 21
8.50891508275516
  0
LINE
  8
1
 10
-24.2121060530266
 20
18.2944294260168
 11
-23.5076950633992
 21
17.6098450090418
  0
LINE
  8
1
 10
-17.2177309691648
 20
25.3464926160633
 11
-16.4314422755264
 21
24.5330123825872
  0
ARC
  8
1
 10
-19.6955600368699
 20
20.7879442603655
 40
4.96789693934968
 50
219.127135373715
 51
48.9253202812904
  0
CIRCLE
  8
1
 10
-13.4350433898699
 20
-12.649339246375
 40
5
  0
CIRCLE
  8
1
 10
13.4350199566971
 20
-12.6493626795577
 40
5
  0
CIRCLE
  8
1
 10
13.4350412671321
 20
14.2206914667734
 40
5
  0
CIRCLE
  8
1
 10
0
 20
19.7856750488281
 40
5
  0
CIRCLE
  8
1
 10
-19
 20
0.785675048828125
 40
5
  0
CIRCLE
  8
1
 10
0
 20
-18.2143249511719
 40
5
  0
CIRCLE
  8
1
 10
0
 20
0.785675048828125
 40
5
  0
CIRCLE
  8
1
 10
19
 20
0.785675048828125
 40
5
  0
CIRCLE
  8
1
 10
0
 20
0.785675048828125
 40
30
  0
ENDBLK
  8
0
  0
ENDSEC
  0
SECTION
  2
ENTITIES
  0
INSERT
  8
1
  2
B2151_00992265
 10
50
 20
52.0492162704468
  0
ENDSEC
  0
EOF
