  0
SECTION
  2
HEADER
  9
$LIMMIN
 10
0
 20
0
  9
$LIMMAX
 10
52.5
 20
74.25
  9
$EXTMIN
 10
0
 20
67
  9
$EXTMAX
 10
0
 20
28
  0
ENDSEC
  0
SECTION
  2
TABLES
  0
TABLE
  2
LTYPE
 70
9
  0
LTYPE
  2
CONTINUOUS
 70
64
  3
Solid line
 72
65
 73
0
 40
0
  0
LTYPE
  2
DASHED
 70
64
  3
__ __ __ __ __ __ __ __ __
 72
65
 73
2
 40
0.75
 49
0.5
 49
-0.25
  0
LTYPE
  2
DOT
 70
64
  3
...........................
 72
65
 73
2
 40
0.25
 49
0
 49
-0.25
  0
LTYPE
  2
DASHDOT
 70
64
  3
__ . __ . __ . __ . __ . __ . 
 72
65
 73
4
 40
1
 49
0.5
 49
-0.25
 49
0
 49
-0.25
  0
ENDTAB
  0
TABLE
  2
LAYER
 70
10
  0
LAYER
  2
1
 70
0
 62
7
  6
CONTINUOUS
  0
LAYER
  2
CONNECTIONS
 70
0
 62
-7
  6
CONTINUOUS
  0
ENDTAB
  0
ENDSEC
  0
SECTION
  2
BLOCKS
  0
BLOCK
  8
0
  2
TRICON
 70
0
 10
0
 20
0
  0
POLYLINE
  8
1
 70
1
 66
1
 40
0.5
 41
0.5
  0
VERTEX
  8
1
 10
-0.25
 20
0
 42
1
  0
VERTEX
  8
1
 10
0.25
 20
0
 42
1
  0
SEQEND
  8
1
  0
ENDBLK
  8
0
  0
BLOCK
  8
0
  2
TRICONSMALL
 70
0
 10
0
 20
0
  0
POLYLINE
  8
1
 70
1
 66
1
 40
0.25
 41
0.25
  0
VERTEX
  8
1
 10
-0.125
 20
0
 42
1
  0
VERTEX
  8
1
 10
0.125
 20
0
 42
1
  0
SEQEND
  8
1
  0
ENDBLK
  8
0
  0
BLOCK
  8
0
  2
TRICONCIRCLE
 70
0
 10
0
 20
0
  0
CIRCLE
  8
1
 10
0
 20
0
 40
0.5
  0
ENDBLK
  8
0
  0
BLOCK
  8
0
  2
LCBP0
 70
0
 10
0
 20
0
  0
LINE
  8
1
 10
0
 20
-0.46875
 11
0
 21
0.46875
  0
ENDBLK
  8
0
  0
BLOCK
  8
0
  2
LCBP1
 70
0
 10
0
 20
0
  0
LINE
  8
1
 10
0
 20
-0.625
 11
0
 21
0.625
  0
ENDBLK
  8
0
  0
BLOCK
  8
0
  2
LCBP2
 70
0
 10
0
 20
0
  0
LINE
  8
1
 10
0
 20
-0.9375
 11
0
 21
0.9375
  0
ENDBLK
  8
0
  0
BLOCK
  8
0
  2
LCA1
 70
0
 10
0
 20
0
  0
SOLID
  8
1
 62
7 
 10
0
 20
0
 11
-1.4
 21
-0.275
 12
-1.4
 22
0.275
 13
-1.4
 23
0.275
  0
ENDBLK
  8
0
  0
BLOCK
  8
0
  2
LCA2
 70
0
 10
0
 20
0
  0
SOLID
  8
1
 62
7 
 10
0
 20
0
 11
-1.65
 21
-0.525
 12
-1.65
 22
0.525
 13
-1.65
 23
0.525
  0
ENDBLK
  8
0
  0
BLOCK
  8
0
  2
LCA3
 70
0
 10
0
 20
0
  0
SOLID
  8
1
 62
7 
 10
0
 20
0
 11
-2.15
 21
-1.15
 12
-2.15
 22
1.15
 13
-2.15
 23
1.15
  0
ENDBLK
  8
0
  0
BLOCK
  8
0
  2
LCA1R
 70
0
 10
0
 20
0
  0
SOLID
  8
1
 62
7 
 10
0
 20
0
 11
1.4
 21
-0.275
 12
1.4
 22
0.275
 13
1.4
 23
0.275
  0
ENDBLK
  8
0
  0
BLOCK
  8
0
  2
LCA2R
 70
0
 10
0
 20
0
  0
SOLID
  8
1
 62
7 
 10
0
 20
0
 11
1.65
 21
-0.525
 12
1.65
 22
0.525
 13
1.65
 23
0.525
  0
ENDBLK
  8
0
  0
BLOCK
  8
0
  2
LCA3R
 70
0
 10
0
 20
0
  0
SOLID
  8
1
 62
7 
 10
0
 20
0
 11
2.15
 21
-1.15
 12
2.15
 22
1.15
 13
2.15
 23
1.15
  0
ENDBLK
  8
0
  0
BLOCK
  8
0
  2
B32577_00992254
 70
0
 10
0
 20
0
  0
POLYLINE
  8
1
 66
1
  0
VERTEX
  8
1
 10
-33.5
 20
10
  0
VERTEX
  8
1
 10
33.5
 20
10
  0
VERTEX
  8
1
 10
33.5
 20
-10
  0
VERTEX
  8
1
 10
-33.5
 20
-10
  0
VERTEX
  8
1
 10
-33.5
 20
10
  0
SEQEND
  8
1
  0
LINE
  8
1
 10
-11.5
 20
6
 11
-11.5
 21
2
  0
LINE
  8
1
 10
20.5
 20
6
 11
-11.5
 21
6
  0
POLYLINE
  8
1
 70
1
 66
1
 40
0.5
 41
0.5
  0
VERTEX
  8
1
 10
20.25
 20
6
 42
1
  0
VERTEX
  8
1
 10
20.75
 20
6
 42
1
  0
SEQEND
  8
1
  0
LINE
  8
1
 10
20.5
 20
10
 11
20.5
 21
2
  0
LINE
  8
1
 10
20.5
 20
-6
 11
20.5
 21
-10
  0
LINE
  8
1
 10
-11.5
 20
-6
 11
-11.5
 21
-10
  0
TEXT
  8
1
 40
2.475
 41
0.75
  1
1
  7
STANDARD
 72
2
 10
-12
 20
-14.2625
 11
-12
 21
-14.2625
  0
TEXT
  8
1
 40
2.475
 41
0.75
  1
11
  7
STANDARD
 72
2
 10
20
 20
-14.2625
 11
20
 21
-14.2625
  0
TEXT
  8
1
 40
2.475
 41
0.75
  1
2
  7
STANDARD
 72
2
 10
19.8652088994433
 20
11.2375
 11
19.8652088994433
 21
11.2375
  0
LINE
  8
1
 10
20.4999872401008
 20
14
 11
20.4999872401008
 21
10
  0
LINE
  8
1
 10
20.5
 20
-10
 11
20.5
 21
-14
  0
LINE
  8
1
 10
-11.5
 20
-10
 11
-11.5
 21
-14
  0
TEXT
  8
1
 40
2.475
 41
0.75
  1
112
  7
STANDARD
 72
2
 73
2
 10
4.2
 20
1.3
 11
4.2
 21
1.3
  0
TEXT
  8
1
 40
2.475
 41
0.75
  1
12
  7
STANDARD
 72
2
 73
2
 10
-27.5
 20
1.3
 11
-27.5
 21
1.3
  0
POLYLINE
  8
1
 66
1
  0
VERTEX
  8
1
 10
29.5
 20
-4
  0
VERTEX
  8
1
 10
29.0833333333333
 20
-6
  0
VERTEX
  8
1
 10
28.25
 20
-2
  0
VERTEX
  8
1
 10
27.4166666666668
 20
-6
  0
VERTEX
  8
1
 10
26.5833333333332
 20
-2
  0
VERTEX
  8
1
 10
25.75
 20
-6
  0
VERTEX
  8
1
 10
24.9166666666668
 20
-2
  0
VERTEX
  8
1
 10
24.5
 20
-4
  0
SEQEND
  8
1
  0
POLYLINE
  8
1
 66
1
  0
VERTEX
  8
1
 10
-2.5
 20
-4
  0
VERTEX
  8
1
 10
-2.91666666666668
 20
-6
  0
VERTEX
  8
1
 10
-3.75
 20
-2
  0
VERTEX
  8
1
 10
-4.58333333333335
 20
-6
  0
VERTEX
  8
1
 10
-5.41666666666665
 20
-2
  0
VERTEX
  8
1
 10
-6.25
 20
-6
  0
VERTEX
  8
1
 10
-7.08333333333332
 20
-2
  0
VERTEX
  8
1
 10
-7.5
 20
-4
  0
SEQEND
  8
1
  0
LINE
  8
1
 10
4.5
 20
-6
 11
6.5
 21
-2
  0
POLYLINE
  8
1
 66
1
  0
VERTEX
  8
1
 10
2.5
 20
-2
  0
VERTEX
  8
1
 10
8.5
 20
-2
  0
VERTEX
  8
1
 10
8.5
 20
-6
  0
VERTEX
  8
1
 10
2.5
 20
-6
  0
VERTEX
  8
1
 10
2.5
 20
-2
  0
SEQEND
  8
1
  0
LINE
  8
1
 10
-27.5
 20
-6
 11
-25.5
 21
-2
  0
POLYLINE
  8
1
 66
1
  0
VERTEX
  8
1
 10
-29.5
 20
-2
  0
VERTEX
  8
1
 10
-23.5
 20
-2
  0
VERTEX
  8
1
 10
-23.5
 20
-6
  0
VERTEX
  8
1
 10
-29.5
 20
-6
  0
VERTEX
  8
1
 10
-29.5
 20
-2
  0
SEQEND
  8
1
  0
LINE
  8
1
 10
4.5
 20
1.5
 11
8.5
 21
1.5
  0
LINE
  8
1
 10
4.5
 20
2
 11
4.5
 21
-1
  0
LINE
  8
1
 10
4.5
 20
-0.5
 11
8.5
 21
-0.5
  0
LINE
  8
1
 10
8.5
 20
-2
 11
8.5
 21
2
  0
LINE
  8
1
 10
-27.5
 20
1.5
 11
-23.5
 21
1.5
  0
LINE
  8
1
 10
-27.5
 20
2
 11
-27.5
 21
-1
  0
LINE
  8
1
 10
-27.5
 20
-0.5
 11
-23.5
 21
-0.5
  0
LINE
  8
1
 10
-23.5
 20
-2
 11
-23.5
 21
2
  0
LINE
  8
1
 10
20.5
 20
2
 11
20.5
 21
0
  0
INSERT
  8
1
  2
LCBP1
 10
20.5
 20
0
 50
-90
  0
LINE
  8
1
 10
20.5
 20
-6
 11
20.5
 21
-4
  0
INSERT
  8
1
  2
LCBP1
 10
20.5
 20
-4
 50
90
  0
POLYLINE
  8
1
 66
1
  0
VERTEX
  8
1
 10
16.5
 20
2
  0
VERTEX
  8
1
 10
24.5
 20
2
  0
VERTEX
  8
1
 10
24.5
 20
-6
  0
VERTEX
  8
1
 10
16.5
 20
-6
  0
VERTEX
  8
1
 10
16.5
 20
2
  0
SEQEND
  8
1
  0
LINE
  8
1
 10
-11.5
 20
2
 11
-11.5
 21
0
  0
INSERT
  8
1
  2
LCBP1
 10
-11.5
 20
0
 50
-90
  0
LINE
  8
1
 10
-11.5
 20
-6
 11
-11.5
 21
-4
  0
INSERT
  8
1
  2
LCBP1
 10
-11.5
 20
-4
 50
90
  0
POLYLINE
  8
1
 66
1
  0
VERTEX
  8
1
 10
-15.5
 20
2
  0
VERTEX
  8
1
 10
-7.5
 20
2
  0
VERTEX
  8
1
 10
-7.5
 20
-6
  0
VERTEX
  8
1
 10
-15.5
 20
-6
  0
VERTEX
  8
1
 10
-15.5
 20
2
  0
SEQEND
  8
1
  0
POLYLINE
  8
1
 66
1
  0
VERTEX
  8
1
 10
8.5
 20
2
  0
VERTEX
  8
1
 10
16.5
 20
2
  0
VERTEX
  8
1
 10
16.5
 20
-6
  0
VERTEX
  8
1
 10
8.5
 20
-6
  0
VERTEX
  8
1
 10
8.5
 20
2
  0
SEQEND
  8
1
  0
LINE
  8
1
 10
12.5
 20
2
 11
12.5
 21
-6
  0
INSERT
  8
1
  2
LCA1
 10
12.5
 20
-6
 50
-90
  0
LINE
  8
1
 10
-19.5
 20
-6
 11
-19.5
 21
2
  0
INSERT
  8
1
  2
LCA1
 10
-19.5
 20
2
 50
90
  0
POLYLINE
  8
1
 66
1
  0
VERTEX
  8
1
 10
-23.5
 20
2
  0
VERTEX
  8
1
 10
-15.5
 20
2
  0
VERTEX
  8
1
 10
-15.5
 20
-6
  0
VERTEX
  8
1
 10
-23.5
 20
-6
  0
VERTEX
  8
1
 10
-23.5
 20
2
  0
SEQEND
  8
1
  0
CIRCLE
  8
CONNECTIONS
 10
20.4999872401008
 20
14
 40
0
  0
CIRCLE
  8
CONNECTIONS
 10
-11.5
 20
-14
 40
0
  0
CIRCLE
  8
CONNECTIONS
 10
20.5
 20
-14
 40
0
  0
CIRCLE
  8
CONNECTIONS
 10
2.5
 20
-4
 40
0
  0
CIRCLE
  8
CONNECTIONS
 10
-29.5
 20
-4
 40
0
  0
ENDBLK
  8
0
  0
ENDSEC
  0
SECTION
  2
ENTITIES
  0
INSERT
  8
1
  2
B32577_00992254
 10
33.5
 20
14
  0
ENDSEC
  0
EOF
