  0
SECTION
  2
HEADER
  9
$LIMMIN
 10
0
 20
0
  9
$LIMMAX
 10
52.5
 20
74.25
  9
$EXTMIN
 10
0
 20
20
  9
$EXTMAX
 10
0
 20
24
  0
ENDSEC
  0
SECTION
  2
TABLES
  0
TABLE
  2
LTYPE
 70
9
  0
LTYPE
  2
CONTINUOUS
 70
64
  3
Solid line
 72
65
 73
0
 40
0
  0
LTYPE
  2
DASHED
 70
64
  3
__ __ __ __ __ __ __ __ __
 72
65
 73
2
 40
0.75
 49
0.5
 49
-0.25
  0
LTYPE
  2
DOT
 70
64
  3
...........................
 72
65
 73
2
 40
0.25
 49
0
 49
-0.25
  0
LTYPE
  2
DASHDOT
 70
64
  3
__ . __ . __ . __ . __ . __ . 
 72
65
 73
4
 40
1
 49
0.5
 49
-0.25
 49
0
 49
-0.25
  0
ENDTAB
  0
TABLE
  2
LAYER
 70
10
  0
LAYER
  2
1
 70
0
 62
7
  6
CONTINUOUS
  0
LAYER
  2
CONNECTIONS
 70
0
 62
-7
  6
CONTINUOUS
  0
ENDTAB
  0
ENDSEC
  0
SECTION
  2
BLOCKS
  0
BLOCK
  8
0
  2
TRICON
 70
0
 10
0
 20
0
  0
POLYLINE
  8
1
 70
1
 66
1
 40
0.5
 41
0.5
  0
VERTEX
  8
1
 10
-0.25
 20
0
 42
1
  0
VERTEX
  8
1
 10
0.25
 20
0
 42
1
  0
SEQEND
  8
1
  0
ENDBLK
  8
0
  0
BLOCK
  8
0
  2
TRICONSMALL
 70
0
 10
0
 20
0
  0
POLYLINE
  8
1
 70
1
 66
1
 40
0.25
 41
0.25
  0
VERTEX
  8
1
 10
-0.125
 20
0
 42
1
  0
VERTEX
  8
1
 10
0.125
 20
0
 42
1
  0
SEQEND
  8
1
  0
ENDBLK
  8
0
  0
BLOCK
  8
0
  2
TRICONCIRCLE
 70
0
 10
0
 20
0
  0
CIRCLE
  8
1
 10
0
 20
0
 40
0.5
  0
ENDBLK
  8
0
  0
BLOCK
  8
0
  2
LCBP0
 70
0
 10
0
 20
0
  0
LINE
  8
1
 10
0
 20
-0.46875
 11
0
 21
0.46875
  0
ENDBLK
  8
0
  0
BLOCK
  8
0
  2
LCBP1
 70
0
 10
0
 20
0
  0
LINE
  8
1
 10
0
 20
-0.625
 11
0
 21
0.625
  0
ENDBLK
  8
0
  0
BLOCK
  8
0
  2
LCBP2
 70
0
 10
0
 20
0
  0
LINE
  8
1
 10
0
 20
-0.9375
 11
0
 21
0.9375
  0
ENDBLK
  8
0
  0
BLOCK
  8
0
  2
LCA1
 70
0
 10
0
 20
0
  0
SOLID
  8
1
 62
7 
 10
0
 20
0
 11
-1.4
 21
-0.275
 12
-1.4
 22
0.275
 13
-1.4
 23
0.275
  0
ENDBLK
  8
0
  0
BLOCK
  8
0
  2
LCA2
 70
0
 10
0
 20
0
  0
SOLID
  8
1
 62
7 
 10
0
 20
0
 11
-1.65
 21
-0.525
 12
-1.65
 22
0.525
 13
-1.65
 23
0.525
  0
ENDBLK
  8
0
  0
BLOCK
  8
0
  2
LCA3
 70
0
 10
0
 20
0
  0
SOLID
  8
1
 62
7 
 10
0
 20
0
 11
-2.15
 21
-1.15
 12
-2.15
 22
1.15
 13
-2.15
 23
1.15
  0
ENDBLK
  8
0
  0
BLOCK
  8
0
  2
LCA1R
 70
0
 10
0
 20
0
  0
SOLID
  8
1
 62
7 
 10
0
 20
0
 11
1.4
 21
-0.275
 12
1.4
 22
0.275
 13
1.4
 23
0.275
  0
ENDBLK
  8
0
  0
BLOCK
  8
0
  2
LCA2R
 70
0
 10
0
 20
0
  0
SOLID
  8
1
 62
7 
 10
0
 20
0
 11
1.65
 21
-0.525
 12
1.65
 22
0.525
 13
1.65
 23
0.525
  0
ENDBLK
  8
0
  0
BLOCK
  8
0
  2
LCA3R
 70
0
 10
0
 20
0
  0
SOLID
  8
1
 62
7 
 10
0
 20
0
 11
2.15
 21
-1.15
 12
2.15
 22
1.15
 13
2.15
 23
1.15
  0
ENDBLK
  8
0
  0
BLOCK
  8
0
  2
B4294_00992251
 70
0
 10
0
 20
0
  0
POLYLINE
  8
1
 66
1
  0
VERTEX
  8
1
 10
-10
 20
12
  0
VERTEX
  8
1
 10
10
 20
12
  0
VERTEX
  8
1
 10
10
 20
-8
  0
VERTEX
  8
1
 10
-10
 20
-8
  0
VERTEX
  8
1
 10
-10
 20
12
  0
SEQEND
  8
1
  0
TEXT
  8
1
 40
2.475
 41
0.75
  1
A
  7
STANDARD
 72
2
 10
-6.24621365416195
 20
-11.4048495579133
 11
-6.24621365416195
 21
-11.4048495579133
  0
TEXT
  8
1
 40
2.475
 41
0.75
  1
D
  7
STANDARD
 72
2
 10
6.48711967917139
 20
-11.42151622458
 11
6.48711967917139
 21
-11.42151622458
  0
TEXT
  8
1
 40
2.475
 41
0.75
  1
C
  7
STANDARD
 72
2
 10
2.48711967917139
 20
-11.42151622458
 11
2.48711967917139
 21
-11.42151622458
  0
TEXT
  8
1
 40
2.475
 41
0.75
  1
B
  7
STANDARD
 72
2
 10
-1.51288032082861
 20
-11.42151622458
 11
-1.51288032082861
 21
-11.42151622458
  0
LINE
  8
1
 10
6
 20
-12
 11
6
 21
-8
  0
LINE
  8
1
 10
2
 20
-12
 11
2
 21
-8
  0
LINE
  8
1
 10
-2
 20
-12
 11
-2
 21
-8
  0
LINE
  8
1
 10
-6
 20
-12
 11
-6
 21
-8
  0
TEXT
  8
1
 40
1.8
 41
0.75
  1
ABCD
  7
STANDARD
 72
1
 73
2
 10
0
 20
-1.5
 11
0
 21
-1.5
  0
TEXT
  8
1
 40
1.8
 41
0.75
  1
A
  7
STANDARD
 72
2
 73
2
 10
6.13261302312215
 20
3
 11
6.13261302312215
 21
3
  0
TEXT
  8
1
 40
1.8
 41
0.75
  1
A
  7
STANDARD
 73
2
 10
-6.13261302312215
 20
3
 11
-6.13261302312215
 21
3
  0
TEXT
  8
1
 40
1.8
 41
0.75
  1
B
  7
STANDARD
 72
1
 73
2
 10
0
 20
8
 11
0
 21
8
  0
LINE
  8
1
 10
5.08157816743557
 20
-1.47101937119475
 11
6.08157816743557
 21
-1.97101937119475
  0
LINE
  8
1
 10
-6.08156305651436
 20
-1.97104203767626
 11
-5.08156305651436
 21
-1.47104203767626
  0
ARC
  8
1
  6
DOT
 10
0
 20
2
 40
6.70820393249936
 50
213.69006752598
 51
326.31016514934
  0
INSERT
  8
1
  2
LCA2
 10
5.64566880847278
 20
-1.62304067118179
 50
56.8101651493402
  0
INSERT
  8
1
  2
LCA2R
 10
-5.58156305651436
 20
-1.72104203767627
 50
-55.8099324740199
  0
LINE
  8
1
 10
3.25
 20
8.49999999999999
 11
2.75
 21
7.49999999999999
  0
ARC
  8
1
  6
DOT
 10
0
 20
2
 40
6.70820393249936
 50
359.53692331262
 51
63.434948822922
  0
INSERT
  8
1
  2
LCA2
 10
2.89482864684547
 20
8.05144339025019
 50
153.934948822922
  0
LINE
  8
1
 10
-3.25
 20
8.49999999999999
 11
-2.75
 21
7.49999999999999
  0
ARC
  8
1
 10
0
 20
2
 40
6.70820393249936
 50
116.565051177078
 51
180
  0
INSERT
  8
1
  2
LCA2R
 10
-3
 20
7.99999999999999
 50
-152.934948822922
  0
CIRCLE
  8
1
 10
0
 20
2
 40
8
  0
CIRCLE
  8
CONNECTIONS
 10
-6
 20
-12
 40
0
  0
CIRCLE
  8
CONNECTIONS
 10
-2
 20
-12
 40
0
  0
CIRCLE
  8
CONNECTIONS
 10
2
 20
-12
 40
0
  0
CIRCLE
  8
CONNECTIONS
 10
6
 20
-12
 40
0
  0
ENDBLK
  8
0
  0
ENDSEC
  0
SECTION
  2
ENTITIES
  0
INSERT
  8
1
  2
B4294_00992251
 10
10
 20
12
  0
ENDSEC
  0
EOF
