  0
SECTION
  2
HEADER
  9
$LIMMIN
 10
0
 20
0
  9
$LIMMAX
 10
52.5
 20
74.25
  9
$EXTMIN
 10
0
 20
23.5084542036056
  9
$EXTMAX
 10
0
 20
28.4505202770233
  0
ENDSEC
  0
SECTION
  2
TABLES
  0
TABLE
  2
LTYPE
 70
9
  0
LTYPE
  2
CONTINUOUS
 70
64
  3
Solid line
 72
65
 73
0
 40
0
  0
LTYPE
  2
DASHED
 70
64
  3
__ __ __ __ __ __ __ __ __
 72
65
 73
2
 40
0.75
 49
0.5
 49
-0.25
  0
LTYPE
  2
DOT
 70
64
  3
...........................
 72
65
 73
2
 40
0.25
 49
0
 49
-0.25
  0
LTYPE
  2
DASHDOT
 70
64
  3
__ . __ . __ . __ . __ . __ . 
 72
65
 73
4
 40
1
 49
0.5
 49
-0.25
 49
0
 49
-0.25
  0
ENDTAB
  0
TABLE
  2
LAYER
 70
10
  0
LAYER
  2
1
 70
0
 62
7
  6
CONTINUOUS
  0
LAYER
  2
CONNECTIONS
 70
0
 62
-7
  6
CONTINUOUS
  0
ENDTAB
  0
ENDSEC
  0
SECTION
  2
BLOCKS
  0
BLOCK
  8
0
  2
TRICON
 70
0
 10
0
 20
0
  0
POLYLINE
  8
1
 70
1
 66
1
 40
0.5
 41
0.5
  0
VERTEX
  8
1
 10
-0.25
 20
0
 42
1
  0
VERTEX
  8
1
 10
0.25
 20
0
 42
1
  0
SEQEND
  8
1
  0
ENDBLK
  8
0
  0
BLOCK
  8
0
  2
TRICONSMALL
 70
0
 10
0
 20
0
  0
POLYLINE
  8
1
 70
1
 66
1
 40
0.25
 41
0.25
  0
VERTEX
  8
1
 10
-0.125
 20
0
 42
1
  0
VERTEX
  8
1
 10
0.125
 20
0
 42
1
  0
SEQEND
  8
1
  0
ENDBLK
  8
0
  0
BLOCK
  8
0
  2
TRICONCIRCLE
 70
0
 10
0
 20
0
  0
CIRCLE
  8
1
 10
0
 20
0
 40
0.5
  0
ENDBLK
  8
0
  0
BLOCK
  8
0
  2
LCBP0
 70
0
 10
0
 20
0
  0
LINE
  8
1
 10
0
 20
-0.46875
 11
0
 21
0.46875
  0
ENDBLK
  8
0
  0
BLOCK
  8
0
  2
LCBP1
 70
0
 10
0
 20
0
  0
LINE
  8
1
 10
0
 20
-0.625
 11
0
 21
0.625
  0
ENDBLK
  8
0
  0
BLOCK
  8
0
  2
LCBP2
 70
0
 10
0
 20
0
  0
LINE
  8
1
 10
0
 20
-0.9375
 11
0
 21
0.9375
  0
ENDBLK
  8
0
  0
BLOCK
  8
0
  2
LCA1
 70
0
 10
0
 20
0
  0
SOLID
  8
1
 62
7 
 10
0
 20
0
 11
-1.4
 21
-0.275
 12
-1.4
 22
0.275
 13
-1.4
 23
0.275
  0
ENDBLK
  8
0
  0
BLOCK
  8
0
  2
LCA2
 70
0
 10
0
 20
0
  0
SOLID
  8
1
 62
7 
 10
0
 20
0
 11
-1.65
 21
-0.525
 12
-1.65
 22
0.525
 13
-1.65
 23
0.525
  0
ENDBLK
  8
0
  0
BLOCK
  8
0
  2
LCA3
 70
0
 10
0
 20
0
  0
SOLID
  8
1
 62
7 
 10
0
 20
0
 11
-2.15
 21
-1.15
 12
-2.15
 22
1.15
 13
-2.15
 23
1.15
  0
ENDBLK
  8
0
  0
BLOCK
  8
0
  2
LCA1R
 70
0
 10
0
 20
0
  0
SOLID
  8
1
 62
7 
 10
0
 20
0
 11
1.4
 21
-0.275
 12
1.4
 22
0.275
 13
1.4
 23
0.275
  0
ENDBLK
  8
0
  0
BLOCK
  8
0
  2
LCA2R
 70
0
 10
0
 20
0
  0
SOLID
  8
1
 62
7 
 10
0
 20
0
 11
1.65
 21
-0.525
 12
1.65
 22
0.525
 13
1.65
 23
0.525
  0
ENDBLK
  8
0
  0
BLOCK
  8
0
  2
LCA3R
 70
0
 10
0
 20
0
  0
SOLID
  8
1
 62
7 
 10
0
 20
0
 11
2.15
 21
-1.15
 12
2.15
 22
1.15
 13
2.15
 23
1.15
  0
ENDBLK
  8
0
  0
BLOCK
  8
0
  2
B1361_00992230
 70
0
 10
0
 20
0
  0
CIRCLE
  8
1
 10
5.99577287832896
 20
0
 40
3
  0
ARC
  8
1
 10
3.87444356251084
 20
2.12132931581812
 40
0.65
 50
231.221935790263
 51
38.7816898214513
  0
LINE
  8
1
 10
4.49577287832896
 20
0
 11
3.49577287832896
 21
0
  0
LINE
  8
1
 10
3.99577287832896
 20
-0.5
 11
3.99577287832896
 21
0.5
  0
LINE
  8
1
 10
5.99577287832896
 20
1.5
 11
5.99577287832896
 21
2.5
  0
LINE
  8
1
 10
5.49577287832896
 20
2
 11
6.49577287832896
 21
2
  0
LINE
  8
1
 10
7.49577287832896
 20
0
 11
8.49577287832896
 21
0
  0
LINE
  8
1
 10
7.99577287832896
 20
-0.5
 11
7.99577287832896
 21
0.5
  0
LINE
  8
1
 10
5.49577287832896
 20
-2
 11
6.49577287832896
 21
-2
  0
LINE
  8
1
 10
5.99577287832896
 20
-1.5
 11
5.99577287832896
 21
-2.5
  0
TEXT
  8
1
 40
1.8
 41
0.75
  1
2
  7
STANDARD
 72
1
 73
2
 10
1.49577287832896
 20
4.88498130835069E-15
 11
1.49577287832896
 21
4.88498130835069E-15
  0
TEXT
  8
1
 40
1.8
 41
0.75
  1
1
  7
STANDARD
 72
1
 73
2
 10
5.99577287832896
 20
4.5
 11
5.99577287832896
 21
4.5
  0
TEXT
  8
1
 40
1.8
 41
0.75
  1
3
  7
STANDARD
 72
1
 73
2
 10
5.99577287832896
 20
-5
 11
5.99577287832896
 21
-5
  0
TEXT
  8
1
 40
1.8
 41
0.75
  1
4
  7
STANDARD
 72
1
 73
2
 10
10.495772878329
 20
4.88498130835069E-15
 11
10.495772878329
 21
4.88498130835069E-15
  0
TEXT
  8
1
 40
1.8
 41
0.75
  1
2
  7
STANDARD
 10
-2.75422712167104
 20
-8.34999999999999
  0
TEXT
  8
1
 40
1.8
 41
0.75
  1
4
  7
STANDARD
 10
-11.754227121671
 20
-8.34999999999999
  0
CIRCLE
  8
1
 10
-6.00422712167104
 20
-7.5
 40
3
  0
TEXT
  8
1
 40
1.8
 41
0.75
  1
1
  7
STANDARD
 72
1
 73
2
 10
-6.00422712167104
 20
-2.99999999999999
 11
-6.00422712167104
 21
-2.99999999999999
  0
TEXT
  8
1
 40
1.8
 41
0.75
  1
3
  7
STANDARD
 72
1
 73
2
 10
-6.00422712167104
 20
-12.5
 11
-6.00422712167104
 21
-12.5
  0
CIRCLE
  8
1
 10
-8.00422712167104
 20
-7.5
 40
0.5
  0
CIRCLE
  8
1
 10
-6.00422712167104
 20
-9.5
 40
0.5
  0
CIRCLE
  8
1
 10
-4.00422712167104
 20
-7.5
 40
0.5
  0
CIRCLE
  8
1
 10
-6.00422712167104
 20
-5.5
 40
0.5
  0
ARC
  8
1
 10
-3.88289780585292
 20
-5.37867068418188
 40
0.65
 50
141.218310178549
 51
308.778064209737
  0
TEXT
  8
1
 40
1.8
 41
0.75
  1
2
  7
STANDARD
 10
-2.75422712167104
 20
7.15
  0
TEXT
  8
1
 40
1.8
 41
0.75
  1
4
  7
STANDARD
 10
-11.754227121671
 20
7.15
  0
CIRCLE
  8
1
 10
-6.00422712167104
 20
8
 40
3
  0
TEXT
  8
1
 40
1.8
 41
0.75
  1
1
  7
STANDARD
 72
1
 73
2
 10
-6.00422712167104
 20
12.5
 11
-6.00422712167104
 21
12.5
  0
TEXT
  8
1
 40
1.8
 41
0.75
  1
3
  7
STANDARD
 72
1
 73
2
 10
-6.00422712167104
 20
3
 11
-6.00422712167104
 21
3
  0
CIRCLE
  8
1
 10
-8.00422712167104
 20
8
 40
0.5
  0
CIRCLE
  8
1
 10
-6.00422712167104
 20
6
 40
0.5
  0
CIRCLE
  8
1
 10
-4.00422712167104
 20
8
 40
0.5
  0
CIRCLE
  8
1
 10
-6.00422712167104
 20
10
 40
0.5
  0
ARC
  8
1
 10
-3.88289780585292
 20
10.1213293158181
 40
0.65
 50
141.218310178549
 51
308.778064209737
  0
ENDBLK
  8
0
  0
ENDSEC
  0
SECTION
  2
ENTITIES
  0
INSERT
  8
1
  2
B1361_00992230
 10
11.754227121671
 20
14.2252601385117
  0
ENDSEC
  0
EOF
