  0
SECTION
  2
HEADER
  9
$LIMMIN
 10
0
 20
0
  9
$LIMMAX
 10
52.5
 20
74.25
  9
$EXTMIN
 10
0
 20
40.0800236066182
  9
$EXTMAX
 10
0
 20
20.4999997615814
  0
ENDSEC
  0
SECTION
  2
TABLES
  0
TABLE
  2
LTYPE
 70
9
  0
LTYPE
  2
CONTINUOUS
 70
64
  3
Solid line
 72
65
 73
0
 40
0
  0
LTYPE
  2
DASHED
 70
64
  3
__ __ __ __ __ __ __ __ __
 72
65
 73
2
 40
0.75
 49
0.5
 49
-0.25
  0
LTYPE
  2
DOT
 70
64
  3
...........................
 72
65
 73
2
 40
0.25
 49
0
 49
-0.25
  0
LTYPE
  2
DASHDOT
 70
64
  3
__ . __ . __ . __ . __ . __ . 
 72
65
 73
4
 40
1
 49
0.5
 49
-0.25
 49
0
 49
-0.25
  0
ENDTAB
  0
TABLE
  2
LAYER
 70
10
  0
LAYER
  2
1
 70
0
 62
7
  6
CONTINUOUS
  0
LAYER
  2
CONNECTIONS
 70
0
 62
-7
  6
CONTINUOUS
  0
ENDTAB
  0
ENDSEC
  0
SECTION
  2
BLOCKS
  0
BLOCK
  8
0
  2
TRICON
 70
0
 10
0
 20
0
  0
POLYLINE
  8
1
 70
1
 66
1
 40
0.5
 41
0.5
  0
VERTEX
  8
1
 10
-0.25
 20
0
 42
1
  0
VERTEX
  8
1
 10
0.25
 20
0
 42
1
  0
SEQEND
  8
1
  0
ENDBLK
  8
0
  0
BLOCK
  8
0
  2
TRICONSMALL
 70
0
 10
0
 20
0
  0
POLYLINE
  8
1
 70
1
 66
1
 40
0.25
 41
0.25
  0
VERTEX
  8
1
 10
-0.125
 20
0
 42
1
  0
VERTEX
  8
1
 10
0.125
 20
0
 42
1
  0
SEQEND
  8
1
  0
ENDBLK
  8
0
  0
BLOCK
  8
0
  2
TRICONCIRCLE
 70
0
 10
0
 20
0
  0
CIRCLE
  8
1
 10
0
 20
0
 40
0.5
  0
ENDBLK
  8
0
  0
BLOCK
  8
0
  2
LCBP0
 70
0
 10
0
 20
0
  0
LINE
  8
1
 10
0
 20
-0.46875
 11
0
 21
0.46875
  0
ENDBLK
  8
0
  0
BLOCK
  8
0
  2
LCBP1
 70
0
 10
0
 20
0
  0
LINE
  8
1
 10
0
 20
-0.625
 11
0
 21
0.625
  0
ENDBLK
  8
0
  0
BLOCK
  8
0
  2
LCBP2
 70
0
 10
0
 20
0
  0
LINE
  8
1
 10
0
 20
-0.9375
 11
0
 21
0.9375
  0
ENDBLK
  8
0
  0
BLOCK
  8
0
  2
LCA1
 70
0
 10
0
 20
0
  0
SOLID
  8
1
 62
7 
 10
0
 20
0
 11
-1.4
 21
-0.275
 12
-1.4
 22
0.275
 13
-1.4
 23
0.275
  0
ENDBLK
  8
0
  0
BLOCK
  8
0
  2
LCA2
 70
0
 10
0
 20
0
  0
SOLID
  8
1
 62
7 
 10
0
 20
0
 11
-1.65
 21
-0.525
 12
-1.65
 22
0.525
 13
-1.65
 23
0.525
  0
ENDBLK
  8
0
  0
BLOCK
  8
0
  2
LCA3
 70
0
 10
0
 20
0
  0
SOLID
  8
1
 62
7 
 10
0
 20
0
 11
-2.15
 21
-1.15
 12
-2.15
 22
1.15
 13
-2.15
 23
1.15
  0
ENDBLK
  8
0
  0
BLOCK
  8
0
  2
LCA1R
 70
0
 10
0
 20
0
  0
SOLID
  8
1
 62
7 
 10
0
 20
0
 11
1.4
 21
-0.275
 12
1.4
 22
0.275
 13
1.4
 23
0.275
  0
ENDBLK
  8
0
  0
BLOCK
  8
0
  2
LCA2R
 70
0
 10
0
 20
0
  0
SOLID
  8
1
 62
7 
 10
0
 20
0
 11
1.65
 21
-0.525
 12
1.65
 22
0.525
 13
1.65
 23
0.525
  0
ENDBLK
  8
0
  0
BLOCK
  8
0
  2
LCA3R
 70
0
 10
0
 20
0
  0
SOLID
  8
1
 62
7 
 10
0
 20
0
 11
2.15
 21
-1.15
 12
2.15
 22
1.15
 13
2.15
 23
1.15
  0
ENDBLK
  8
0
  0
BLOCK
  8
0
  2
B3089_00992134
 70
0
 10
0
 20
0
  0
TEXT
  8
1
 40
1.8
 41
0.75
  1
+
  7
STANDARD
 10
17.4430793921153
 20
6.42474006017049
  0
TEXT
  8
1
 40
1.8
 41
0.75
  1
-
  7
STANDARD
 10
17.3630554676056
 20
-9.34999968210856
  0
TEXT
  8
1
 40
1.8
 41
0.75
  1
OG
  7
STANDARD
 10
-6.04001180330912
 20
-4.30052019755045
  0
TEXT
  8
1
 40
1.8
 41
0.75
  1
BU
  7
STANDARD
 10
-6.04001180330912
 20
-8.30052019755045
  0
TEXT
  8
1
 40
1.8
 41
0.75
  1
BN
  7
STANDARD
 10
-6.04001180330912
 20
7.69947980244954
  0
TEXT
  8
1
 40
1.8
 41
0.75
  1
BK
  7
STANDARD
 10
-6.04001180330912
 20
3.69947980244954
  0
TEXT
  8
1
 40
1.8
 41
0.75
  1
WH
  7
STANDARD
 10
-6.04001180330912
 20
-0.300520197550456
  0
TEXT
  8
1
 40
1.8
 41
0.75
  1
PNP
  7
STANDARD
 72
1
 73
3
 10
-13.3733451366425
 20
-7.24947916666667
 11
-13.3733451366425
 21
-7.24947916666667
  0
CIRCLE
  8
1
 10
-1.04001180330912
 20
-8.74999968210856
 40
0.4
  0
LINE
  8
1
 10
-4.04001180330912
 20
-8.74999968210856
 11
-1.44001180330912
 21
-8.74999968210856
  0
LINE
  8
1
 10
-4.04001180330912
 20
-4.74999968210856
 11
-1.44001180330912
 21
-4.74999968210856
  0
LINE
  8
1
 10
-4.04001180330912
 20
-0.749999682108561
 11
-1.44001180330912
 21
-0.749999682108561
  0
LINE
  8
1
 10
-4.04001180330912
 20
3.25000031789144
 11
-1.44001180330912
 21
3.25000031789144
  0
LINE
  8
1
 10
-4.04001180330912
 20
7.25000031789144
 11
-1.44001180330912
 21
7.25000031789144
  0
LINE
  8
1
 10
-1.54001180330912
 20
-4.74999968210856
 11
-1.44001180330912
 21
-4.74999968210856
  0
LINE
  8
1
 10
-1.54001180330912
 20
-0.749999682108561
 11
-1.44001180330912
 21
-0.749999682108561
  0
CIRCLE
  8
1
 10
-1.04001180330912
 20
-4.74999968210856
 40
0.4
  0
CIRCLE
  8
1
 10
-1.04001180330912
 20
-0.749999682108561
 40
0.4
  0
CIRCLE
  8
1
 10
-1.04001180330912
 20
3.25000031789144
 40
0.4
  0
CIRCLE
  8
1
 10
-1.04001180330912
 20
7.25000031789144
 40
0.4
  0
LINE
  8
1
 10
-8.04001180330912
 20
-4.74999968210856
 11
-6.04001180330912
 21
-4.74999968210856
  0
POLYLINE
  8
1
 66
1
  0
VERTEX
  8
1
 10
-10.0400118033091
 20
-3.74999968210856
  0
VERTEX
  8
1
 10
-10.0400118033091
 20
-5.74999968210856
  0
VERTEX
  8
1
 10
-8.04001180330912
 20
-4.74999968210856
  0
VERTEX
  8
1
 10
-10.0400118033091
 20
-3.74999968210856
  0
SEQEND
  8
1
  0
TEXT
  8
1
 40
1.8
 41
0.75
  1
ET
  7
STANDARD
 73
3
 10
11.3773787021637
 20
1.25052083333333
 11
11.3773787021637
 21
1.25052083333333
  0
LINE
  8
1
 10
2.95998819669088
 20
-0.749999682108561
 11
3.95998819669088
 21
-0.749999682108561
  0
LINE
  8
1
 10
7.95998819669088
 20
-0.749999682108561
 11
10.9599881966909
 21
-0.749999682108561
  0
LINE
  8
1
 10
7.45998819669088
 20
0.250000317891439
 11
4.95998819669088
 21
-0.749999682108561
  0
LINE
  8
1
 10
6.95998819669088
 20
-0.749999682108561
 11
7.95998819669088
 21
-0.749999682108561
  0
LINE
  8
1
 10
4.95998819669088
 20
-0.749999682108561
 11
3.95998819669088
 21
-0.749999682108561
  0
LINE
  8
1
 10
-8.04001180330912
 20
7.25000031789144
 11
-8.04001180330912
 21
6.25000031789144
  0
LINE
  8
1
 10
-8.04001180330912
 20
3.25000031789144
 11
-8.04001180330912
 21
4.25000031789144
  0
POLYLINE
  8
1
 66
1
  0
VERTEX
  8
1
 10
-6.04001180330912
 20
7.25000031789144
  0
VERTEX
  8
1
 10
-8.04001180330912
 20
7.25000031789144
  0
SEQEND
  8
1
  0
LINE
  8
1
 10
-9.04001180330912
 20
6.75000031789144
 11
-8.04001180330912
 21
4.25000031789144
  0
LINE
  8
1
 10
-8.04001180330912
 20
3.25000031789144
 11
-6.04001180330912
 21
3.25000031789144
  0
TEXT
  8
1
 40
1.8
 41
0.75
  1
U
  7
STANDARD
 72
2
 73
2
 10
-11.5400118033091
 20
-2.24999968210856
 11
-11.5400118033091
 21
-2.24999968210856
  0
LINE
  8
1
 10
-11.0400118033091
 20
-3.74999968210856
 11
-14.0400118033091
 21
-5.74999968210856
  0
LINE
  8
1
 10
-14.0400118033091
 20
-5.74999968210856
 11
-11.0400118033091
 21
-5.74999968210856
  0
LINE
  8
1
 10
-14.0400118033091
 20
-3.24999968210856
 11
-14.0400118033091
 21
-5.74999968210856
  0
TEXT
  8
1
 40
1.8
 41
0.75
  1
R
  7
STANDARD
 72
1
 10
2.52665486335754
 20
-3.84999968210856
 11
2.52665486335754
 21
-3.84999968210856
  0
LINE
  8
1
 10
7.15998819669087
 20
-8.74999968210856
 11
8.75998819669088
 21
-8.74999968210856
  0
LINE
  8
1
 10
-0.573345136642464
 20
-4.74999968210856
 11
0.959988196690877
 21
-4.74999968210856
  0
POLYLINE
  8
1
 66
1
  0
VERTEX
  8
1
 10
0.959988196690877
 20
-4.24999968210856
  0
VERTEX
  8
1
 10
4.95998819669088
 20
-4.24999968210856
  0
VERTEX
  8
1
 10
4.95998819669088
 20
-5.24999968210856
  0
VERTEX
  8
1
 10
0.959988196690877
 20
-5.24999968210856
  0
VERTEX
  8
1
 10
0.959988196690877
 20
-4.24999968210856
  0
SEQEND
  8
1
  0
LINE
  8
1
 10
4.95998819669088
 20
-4.74999968210856
 11
6.95998819669088
 21
-4.74999968210856
  0
LINE
  8
1
 10
8.95998819669088
 20
-8.54999968210856
 11
8.95998819669088
 21
3.25000031789144
  0
LINE
  8
1
 10
-0.573345136642464
 20
-8.74999968210856
 11
6.75998819669087
 21
-8.74999968210856
  0
LINE
  8
1
 10
9.15998819669088
 20
-8.74999968210856
 11
16.9599881966909
 21
-8.74999968210856
  0
CIRCLE
  8
1
 10
8.95998819669088
 20
-8.74999968210856
 40
0.2
  0
CIRCLE
  8
1
 10
6.95998819669088
 20
-8.74999968210856
 40
0.2
  0
LINE
  8
1
 10
6.95998819669088
 20
-8.54999968210856
 11
6.95998819669088
 21
-4.74999968210856
  0
TEXT
  8
1
 40
1.125
 41
0.75
  1
L
  7
STANDARD
 72
1
 10
4.24012087186177
 20
-3.84407504399617
 11
4.24012087186177
 21
-3.84407504399617
  0
LINE
  8
1
 10
-0.573411803309123
 20
7.25000031789144
 11
10.8265881966909
 21
7.25000031789144
  0
CIRCLE
  8
1
 10
11.0266548633575
 20
7.25000031789144
 40
0.2
  0
LINE
  8
1
 10
11.2599881966909
 20
7.25000031789144
 11
16.9599881966909
 21
7.25000031789144
  0
LINE
  8
1
 10
3.95998819669088
 20
3.25000031789144
 11
-0.640011803309126
 21
3.25000031789144
  0
LINE
  8
1
 10
-0.640011803309126
 20
-0.749999682108561
 11
2.95998819669088
 21
-0.749999682108561
  0
LINE
  8
1
 10
10.9599881966909
 20
7.05000031789144
 11
10.9599881966909
 21
-0.749999682108561
  0
LINE
  8
1
 10
7.95998819669088
 20
3.25000031789144
 11
8.95998819669088
 21
3.25000031789144
  0
TEXT
  8
1
 40
1.125
 41
0.75
  1
L
  7
STANDARD
 72
1
 10
7.17345420519511
 20
4.15592495600382
 11
7.17345420519511
 21
4.15592495600382
  0
TEXT
  8
1
 40
1.8
 41
0.75
  1
R
  7
STANDARD
 72
1
 10
5.45998819669088
 20
4.15000031789144
 11
5.45998819669088
 21
4.15000031789144
  0
POLYLINE
  8
1
 66
1
  0
VERTEX
  8
1
 10
3.95998819669088
 20
3.75000031789144
  0
VERTEX
  8
1
 10
7.95998819669088
 20
3.75000031789144
  0
VERTEX
  8
1
 10
7.95998819669088
 20
2.75000031789144
  0
VERTEX
  8
1
 10
3.95998819669088
 20
2.75000031789144
  0
VERTEX
  8
1
 10
3.95998819669088
 20
3.75000031789144
  0
SEQEND
  8
1
  0
LINE
  8
1
 10
-14.3733451366425
 20
7.75000031789144
 11
-13.6662383554559
 21
7.04289353670489
  0
LINE
  8
1
 10
-15.3733451366425
 20
7.75000031789144
 11
-14.6662383554559
 21
7.04289353670489
  0
SOLID
  8
1
 10
-13.3733451366425
 20
6.75000031789144
 11
-13.7268985272357
 21
7.38639642095934
 12
-13.3733451366425
 22
6.75000031789144
 13
-14.0097412397104
 23
7.10355370848471
  0
SOLID
  8
1
 10
-14.3733451366425
 20
6.75000031789144
 11
-14.7268985272357
 21
7.38639642095934
 12
-14.3733451366425
 22
6.75000031789144
 13
-15.0097412397104
 23
7.10355370848471
  0
LINE
  8
1
  6
DOT
 10
-12.4517920413949
 20
5.25000031789144
 11
-8.44000299117702
 21
5.25000031789144
  0
LINE
  8
1
 10
-13.0400118033091
 20
5.96781040239622
 11
-13.0400118033091
 21
7.25000031789144
  0
POLYLINE
  8
1
 66
1
  0
VERTEX
  8
1
 10
-13.0400118033091
 20
4.25000031789144
  0
VERTEX
  8
1
 10
-14.0400118033091
 20
5.95000031789144
  0
VERTEX
  8
1
 10
-12.0400118033091
 20
5.95000031789144
  0
VERTEX
  8
1
 10
-13.0400118033091
 20
4.25000031789144
  0
SEQEND
  8
1
  0
LINE
  8
1
 10
-14.0400118033091
 20
4.25000031789144
 11
-12.0400118033091
 21
4.25000031789144
  0
LINE
  8
1
 10
-13.0400118033091
 20
4.25000031789144
 11
-13.0400118033091
 21
3.25000031789144
  0
LINE
  8
1
 10
-6.04001180330912
 20
-8.74999968210856
 11
-4.04001180330912
 21
-8.74999968210856
  0
POLYLINE
  8
1
 66
1
  0
VERTEX
  8
1
 10
-20.0400118033091
 20
8.25000031789144
  0
VERTEX
  8
1
 10
-6.04001180330912
 20
8.25000031789144
  0
VERTEX
  8
1
 10
-6.04001180330912
 20
-9.74999968210856
  0
VERTEX
  8
1
 10
-20.0400118033091
 20
-9.74999968210856
  0
VERTEX
  8
1
 10
-20.0400118033091
 20
8.25000031789144
  0
SEQEND
  8
1
  0
LINE
  8
1
 10
-6.04001180330912
 20
-4.74999968210856
 11
-4.04001180330912
 21
-4.74999968210856
  0
LINE
  8
1
 10
-6.04001180330912
 20
-0.749999682108561
 11
-4.04001180330912
 21
-0.749999682108561
  0
LINE
  8
1
 10
-6.04001180330912
 20
3.25000031789144
 11
-4.04001180330912
 21
3.25000031789144
  0
LINE
  8
1
 10
-6.04001180330912
 20
7.25000031789144
 11
-4.04001180330912
 21
7.25000031789144
  0
ENDBLK
  8
0
  0
ENDSEC
  0
SECTION
  2
ENTITIES
  0
INSERT
  8
1
  2
B3089_00992134
 10
20.0400118033091
 20
10.2499996821086
  0
ENDSEC
  0
EOF
