  0
SECTION
  2
HEADER
  9
$LIMMIN
 10
0
 20
0
  9
$LIMMAX
 10
52.5
 20
74.25
  9
$EXTMIN
 10
0
 20
32.8000399993056
  9
$EXTMAX
 10
0
 20
16.629628944397
  0
ENDSEC
  0
SECTION
  2
TABLES
  0
TABLE
  2
LTYPE
 70
9
  0
LTYPE
  2
CONTINUOUS
 70
64
  3
Solid line
 72
65
 73
0
 40
0
  0
LTYPE
  2
DASHED
 70
64
  3
__ __ __ __ __ __ __ __ __
 72
65
 73
2
 40
0.75
 49
0.5
 49
-0.25
  0
LTYPE
  2
DOT
 70
64
  3
...........................
 72
65
 73
2
 40
0.25
 49
0
 49
-0.25
  0
LTYPE
  2
DASHDOT
 70
64
  3
__ . __ . __ . __ . __ . __ . 
 72
65
 73
4
 40
1
 49
0.5
 49
-0.25
 49
0
 49
-0.25
  0
ENDTAB
  0
TABLE
  2
LAYER
 70
10
  0
LAYER
  2
1
 70
0
 62
7
  6
CONTINUOUS
  0
LAYER
  2
CONNECTIONS
 70
0
 62
-7
  6
CONTINUOUS
  0
ENDTAB
  0
ENDSEC
  0
SECTION
  2
BLOCKS
  0
BLOCK
  8
0
  2
TRICON
 70
0
 10
0
 20
0
  0
POLYLINE
  8
1
 70
1
 66
1
 40
0.5
 41
0.5
  0
VERTEX
  8
1
 10
-0.25
 20
0
 42
1
  0
VERTEX
  8
1
 10
0.25
 20
0
 42
1
  0
SEQEND
  8
1
  0
ENDBLK
  8
0
  0
BLOCK
  8
0
  2
TRICONSMALL
 70
0
 10
0
 20
0
  0
POLYLINE
  8
1
 70
1
 66
1
 40
0.25
 41
0.25
  0
VERTEX
  8
1
 10
-0.125
 20
0
 42
1
  0
VERTEX
  8
1
 10
0.125
 20
0
 42
1
  0
SEQEND
  8
1
  0
ENDBLK
  8
0
  0
BLOCK
  8
0
  2
TRICONCIRCLE
 70
0
 10
0
 20
0
  0
CIRCLE
  8
1
 10
0
 20
0
 40
0.5
  0
ENDBLK
  8
0
  0
BLOCK
  8
0
  2
LCBP0
 70
0
 10
0
 20
0
  0
LINE
  8
1
 10
0
 20
-0.46875
 11
0
 21
0.46875
  0
ENDBLK
  8
0
  0
BLOCK
  8
0
  2
LCBP1
 70
0
 10
0
 20
0
  0
LINE
  8
1
 10
0
 20
-0.625
 11
0
 21
0.625
  0
ENDBLK
  8
0
  0
BLOCK
  8
0
  2
LCBP2
 70
0
 10
0
 20
0
  0
LINE
  8
1
 10
0
 20
-0.9375
 11
0
 21
0.9375
  0
ENDBLK
  8
0
  0
BLOCK
  8
0
  2
LCA1
 70
0
 10
0
 20
0
  0
SOLID
  8
1
 62
7 
 10
0
 20
0
 11
-1.4
 21
-0.275
 12
-1.4
 22
0.275
 13
-1.4
 23
0.275
  0
ENDBLK
  8
0
  0
BLOCK
  8
0
  2
LCA2
 70
0
 10
0
 20
0
  0
SOLID
  8
1
 62
7 
 10
0
 20
0
 11
-1.65
 21
-0.525
 12
-1.65
 22
0.525
 13
-1.65
 23
0.525
  0
ENDBLK
  8
0
  0
BLOCK
  8
0
  2
LCA3
 70
0
 10
0
 20
0
  0
SOLID
  8
1
 62
7 
 10
0
 20
0
 11
-2.15
 21
-1.15
 12
-2.15
 22
1.15
 13
-2.15
 23
1.15
  0
ENDBLK
  8
0
  0
BLOCK
  8
0
  2
LCA1R
 70
0
 10
0
 20
0
  0
SOLID
  8
1
 62
7 
 10
0
 20
0
 11
1.4
 21
-0.275
 12
1.4
 22
0.275
 13
1.4
 23
0.275
  0
ENDBLK
  8
0
  0
BLOCK
  8
0
  2
LCA2R
 70
0
 10
0
 20
0
  0
SOLID
  8
1
 62
7 
 10
0
 20
0
 11
1.65
 21
-0.525
 12
1.65
 22
0.525
 13
1.65
 23
0.525
  0
ENDBLK
  8
0
  0
BLOCK
  8
0
  2
LCA3R
 70
0
 10
0
 20
0
  0
SOLID
  8
1
 62
7 
 10
0
 20
0
 11
2.15
 21
-1.15
 12
2.15
 22
1.15
 13
2.15
 23
1.15
  0
ENDBLK
  8
0
  0
BLOCK
  8
0
  2
B22109_00992125
 70
0
 10
0
 20
0
  0
TEXT
  8
1
 40
2.4
 41
0.75
  1
4
  7
STANDARD
 72
2
 73
2
 10
5.56520102390675
 20
-7.11481463114421
 11
5.56520102390675
 21
-7.11481463114421
  0
TEXT
  8
1
 40
2.4
 41
0.75
  1
2
  7
STANDARD
 72
2
 73
2
 10
5.76520102390675
 20
6.68518536885579
 11
5.76520102390675
 21
6.68518536885579
  0
LINE
  8
1
 10
6.39998000034718
 20
-4.31481463114421
 11
6.39998000034718
 21
-8.31481463114421
  0
LINE
  8
1
 10
6.39998000034718
 20
3.68518536885579
 11
6.39998000034718
 21
7.68518536885579
  0
TEXT
  8
1
 40
2.475
 41
0.75
  1
84
  7
STANDARD
 73
2
 10
-5.10001999965282
 20
-7.31481463114421
 11
-5.10001999965282
 21
-7.31481463114421
  0
LINE
  8
1
 10
-5.60001999965282
 20
-4.31481463114421
 11
-5.60001999965282
 21
-8.31481463114421
  0
TEXT
  8
1
 40
2.475
 41
0.75
  1
14
  7
STANDARD
 72
2
 73
2
 10
-10.8054082595405
 20
-7.18704722722372
 11
-10.8054082595405
 21
-7.18704722722372
  0
LINE
  8
1
 10
-9.60001999965282
 20
-4.31481463114421
 11
-9.60001999965282
 21
-8.31481463114421
  0
TEXT
  8
1
 40
2.4
 41
0.75
  1
14
  7
STANDARD
 73
2
 10
-16.4000199996528
 20
5.9851853688558
 11
-16.4000199996528
 21
5.9851853688558
  0
LINE
  8
1
 10
-13.6000199996528
 20
3.18518536885579
 11
-9.60001999965282
 21
3.18518536885579
  0
LINE
  8
1
 10
-13.6000199996528
 20
3.68518536885579
 11
-13.6000199996528
 21
0.685185368855793
  0
LINE
  8
1
 10
-13.6000199996528
 20
1.18518536885579
 11
-9.60001999965282
 21
1.18518536885579
  0
LINE
  8
1
 10
-9.60001999965282
 20
-0.314814631144207
 11
-9.60001999965282
 21
3.68518536885579
  0
LINE
  8
1
 10
-13.6000199996528
 20
-4.31481463114421
 11
-11.6000199996528
 21
-0.314814631144207
  0
POLYLINE
  8
1
 66
1
  0
VERTEX
  8
1
 10
-15.6000199996528
 20
-0.314814631144205
  0
VERTEX
  8
1
 10
-9.60001999965282
 20
-0.314814631144205
  0
VERTEX
  8
1
 10
-9.60001999965282
 20
-4.31481463114421
  0
VERTEX
  8
1
 10
-15.6000199996528
 20
-4.31481463114421
  0
VERTEX
  8
1
 10
-15.6000199996528
 20
-0.314814631144205
  0
SEQEND
  8
1
  0
POLYLINE
  8
1
 66
1
  0
VERTEX
  8
1
 10
-9.60001999965282
 20
-0.314814631144205
  0
VERTEX
  8
1
 10
-5.60001999965282
 20
-0.314814631144205
  0
VERTEX
  8
1
 10
-5.60001999965282
 20
-4.31481463114421
  0
VERTEX
  8
1
 10
-9.60001999965282
 20
-4.31481463114421
  0
VERTEX
  8
1
 10
-9.60001999965282
 20
-0.314814631144205
  0
SEQEND
  8
1
  0
LINE
  8
1
 10
-9.60001999965282
 20
-0.314814631144207
 11
-9.60001999965282
 21
-4.31481463114421
  0
LINE
  8
1
 10
-9.60001999965282
 20
-0.314814631144207
 11
-6.13591838451506
 21
-2.31481463114421
  0
LINE
  8
1
 10
-9.60001999965282
 20
-4.31481463114421
 11
-6.13591838451506
 21
-2.31481463114421
  0
POLYLINE
  8
1
 66
1
  0
VERTEX
  8
1
 10
10.4000199996528
 20
-0.314814631144205
  0
VERTEX
  8
1
 10
16.4000199996528
 20
-0.314814631144205
  0
VERTEX
  8
1
 10
16.4000199996528
 20
-4.31737286126956
  0
VERTEX
  8
1
 10
10.4000199996528
 20
-4.31737286126956
  0
VERTEX
  8
1
 10
10.4000199996528
 20
-0.314814631144205
  0
SEQEND
  8
1
  0
LINE
  8
1
 10
16.3666513256965
 20
-0.353301959398526
 11
12.9692117185428
 21
-2.31481463114421
  0
LINE
  8
1
 10
12.9358783852094
 20
-2.31481463114421
 11
10.3999800003472
 21
-2.31481463114421
  0
LINE
  8
1
 10
16.3999800003472
 20
-0.314814631144207
 11
16.3999800003472
 21
-4.31481463114421
  0
LINE
  8
1
 10
16.3999800003472
 20
-4.31481463114421
 11
12.9358783852094
 21
-2.31481463114421
  0
LINE
  8
1
 10
6.39998000034718
 20
3.68518536885579
 11
6.39998000034718
 21
1.68518536885579
  0
INSERT
  8
1
  2
LCBP1
 10
6.39998000034718
 20
1.68518536885579
 50
-90
  0
LINE
  8
1
 10
6.39998000034718
 20
-4.31481463114421
 11
6.39998000034718
 21
-2.31481463114421
  0
INSERT
  8
1
  2
LCBP1
 10
6.39998000034718
 20
-2.31481463114421
 50
90
  0
POLYLINE
  8
1
 66
1
  0
VERTEX
  8
1
 10
2.39998000034718
 20
3.68518536885579
  0
VERTEX
  8
1
 10
10.3999800003472
 20
3.68518536885579
  0
VERTEX
  8
1
 10
10.3999800003472
 20
-4.31481463114421
  0
VERTEX
  8
1
 10
2.39998000034718
 20
-4.31481463114421
  0
VERTEX
  8
1
 10
2.39998000034718
 20
3.68518536885579
  0
SEQEND
  8
1
  0
POLYLINE
  8
1
 66
1
  0
VERTEX
  8
1
 10
-5.60001999965282
 20
3.68518536885579
  0
VERTEX
  8
1
 10
2.39998000034718
 20
3.68518536885579
  0
VERTEX
  8
1
 10
2.39998000034718
 20
-4.31481463114421
  0
VERTEX
  8
1
 10
-5.60001999965282
 20
-4.31481463114421
  0
VERTEX
  8
1
 10
-5.60001999965282
 20
3.68518536885579
  0
SEQEND
  8
1
  0
LINE
  8
1
 10
-1.60001999965282
 20
-4.31481463114421
 11
-1.60001999965282
 21
3.68518536885579
  0
INSERT
  8
1
  2
LCA1
 10
-1.60001999965282
 20
3.68518536885579
 50
90
  0
INSERT
  8
1
  2
LCA1R
 10
-1.60001999965282
 20
-4.31481463114421
 50
90
  0
CIRCLE
  8
CONNECTIONS
 10
-15.6000199996528
 20
-2.31481463114421
 40
0
  0
CIRCLE
  8
CONNECTIONS
 10
6.39998000034718
 20
7.68518536885579
 40
0
  0
CIRCLE
  8
CONNECTIONS
 10
6.39998000034718
 20
-8.31481463114421
 40
0
  0
CIRCLE
  8
CONNECTIONS
 10
-5.60001999965282
 20
-8.31481463114421
 40
0
  0
CIRCLE
  8
CONNECTIONS
 10
-9.60001999965282
 20
-8.31481463114421
 40
0
  0
CIRCLE
  8
CONNECTIONS
 10
-15.6000199996528
 20
-2.31481463114421
 40
0
  0
ENDBLK
  8
0
  0
ENDSEC
  0
SECTION
  2
ENTITIES
  0
INSERT
  8
1
  2
B22109_00992125
 10
16.4000199996528
 20
8.31481463114421
  0
ENDSEC
  0
EOF
