  0
SECTION
  2
HEADER
  9
$LIMMIN
 10
0
 20
0
  9
$LIMMAX
 10
52.5
 20
74.25
  9
$EXTMIN
 10
0
 20
82
  9
$EXTMAX
 10
0
 20
32
  0
ENDSEC
  0
SECTION
  2
TABLES
  0
TABLE
  2
LTYPE
 70
9
  0
LTYPE
  2
CONTINUOUS
 70
64
  3
Solid line
 72
65
 73
0
 40
0
  0
LTYPE
  2
DASHED
 70
64
  3
__ __ __ __ __ __ __ __ __
 72
65
 73
2
 40
0.75
 49
0.5
 49
-0.25
  0
LTYPE
  2
DOT
 70
64
  3
...........................
 72
65
 73
2
 40
0.25
 49
0
 49
-0.25
  0
LTYPE
  2
DASHDOT
 70
64
  3
__ . __ . __ . __ . __ . __ . 
 72
65
 73
4
 40
1
 49
0.5
 49
-0.25
 49
0
 49
-0.25
  0
ENDTAB
  0
TABLE
  2
LAYER
 70
10
  0
LAYER
  2
1
 70
0
 62
7
  6
CONTINUOUS
  0
LAYER
  2
CONNECTIONS
 70
0
 62
-7
  6
CONTINUOUS
  0
ENDTAB
  0
ENDSEC
  0
SECTION
  2
BLOCKS
  0
BLOCK
  8
0
  2
TRICON
 70
0
 10
0
 20
0
  0
POLYLINE
  8
1
 70
1
 66
1
 40
0.5
 41
0.5
  0
VERTEX
  8
1
 10
-0.25
 20
0
 42
1
  0
VERTEX
  8
1
 10
0.25
 20
0
 42
1
  0
SEQEND
  8
1
  0
ENDBLK
  8
0
  0
BLOCK
  8
0
  2
TRICONSMALL
 70
0
 10
0
 20
0
  0
POLYLINE
  8
1
 70
1
 66
1
 40
0.25
 41
0.25
  0
VERTEX
  8
1
 10
-0.125
 20
0
 42
1
  0
VERTEX
  8
1
 10
0.125
 20
0
 42
1
  0
SEQEND
  8
1
  0
ENDBLK
  8
0
  0
BLOCK
  8
0
  2
TRICONCIRCLE
 70
0
 10
0
 20
0
  0
CIRCLE
  8
1
 10
0
 20
0
 40
0.5
  0
ENDBLK
  8
0
  0
BLOCK
  8
0
  2
LCBP0
 70
0
 10
0
 20
0
  0
LINE
  8
1
 10
0
 20
-0.46875
 11
0
 21
0.46875
  0
ENDBLK
  8
0
  0
BLOCK
  8
0
  2
LCBP1
 70
0
 10
0
 20
0
  0
LINE
  8
1
 10
0
 20
-0.625
 11
0
 21
0.625
  0
ENDBLK
  8
0
  0
BLOCK
  8
0
  2
LCBP2
 70
0
 10
0
 20
0
  0
LINE
  8
1
 10
0
 20
-0.9375
 11
0
 21
0.9375
  0
ENDBLK
  8
0
  0
BLOCK
  8
0
  2
LCA1
 70
0
 10
0
 20
0
  0
SOLID
  8
1
 62
7 
 10
0
 20
0
 11
-1.4
 21
-0.275
 12
-1.4
 22
0.275
 13
-1.4
 23
0.275
  0
ENDBLK
  8
0
  0
BLOCK
  8
0
  2
LCA2
 70
0
 10
0
 20
0
  0
SOLID
  8
1
 62
7 
 10
0
 20
0
 11
-1.65
 21
-0.525
 12
-1.65
 22
0.525
 13
-1.65
 23
0.525
  0
ENDBLK
  8
0
  0
BLOCK
  8
0
  2
LCA3
 70
0
 10
0
 20
0
  0
SOLID
  8
1
 62
7 
 10
0
 20
0
 11
-2.15
 21
-1.15
 12
-2.15
 22
1.15
 13
-2.15
 23
1.15
  0
ENDBLK
  8
0
  0
BLOCK
  8
0
  2
LCA1R
 70
0
 10
0
 20
0
  0
SOLID
  8
1
 62
7 
 10
0
 20
0
 11
1.4
 21
-0.275
 12
1.4
 22
0.275
 13
1.4
 23
0.275
  0
ENDBLK
  8
0
  0
BLOCK
  8
0
  2
LCA2R
 70
0
 10
0
 20
0
  0
SOLID
  8
1
 62
7 
 10
0
 20
0
 11
1.65
 21
-0.525
 12
1.65
 22
0.525
 13
1.65
 23
0.525
  0
ENDBLK
  8
0
  0
BLOCK
  8
0
  2
LCA3R
 70
0
 10
0
 20
0
  0
SOLID
  8
1
 62
7 
 10
0
 20
0
 11
2.15
 21
-1.15
 12
2.15
 22
1.15
 13
2.15
 23
1.15
  0
ENDBLK
  8
0
  0
BLOCK
  8
0
  2
B87762_00992113
 70
0
 10
0
 20
0
  0
POLYLINE
  8
1
 66
1
  0
VERTEX
  8
1
 10
-41
 20
12
  0
VERTEX
  8
1
 10
41
 20
12
  0
VERTEX
  8
1
 10
41
 20
-12
  0
VERTEX
  8
1
 10
-41
 20
-12
  0
VERTEX
  8
1
 10
-41
 20
12
  0
SEQEND
  8
1
  0
LINE
  8
1
 10
24.9999872401008
 20
12
 11
24.9999872401008
 21
8
  0
LINE
  8
1
 10
-15
 20
12
 11
-15
 21
8
  0
LINE
  8
1
 10
25
 20
0
 11
25
 21
-12
  0
LINE
  8
1
 10
9
 20
0
 11
9
 21
-12
  0
LINE
  8
1
 10
-3
 20
-8
 11
-3
 21
-12
  0
LINE
  8
1
 10
-15
 20
0
 11
-15
 21
-12
  0
LINE
  8
1
 10
-27
 20
0
 11
-27
 21
-12
  0
LINE
  8
1
 10
-31
 20
0
 11
-31
 21
-12
  0
POLYLINE
  8
1
  6
DOT
 66
1
  0
VERTEX
  8
1
 10
-11
 20
-8
  0
VERTEX
  8
1
 10
-11
 20
0
  0
SEQEND
  8
1
  0
POLYLINE
  8
1
  6
DOT
 66
1
  0
VERTEX
  8
1
 10
5
 20
-8
  0
VERTEX
  8
1
 10
29
 20
-8
  0
VERTEX
  8
1
 10
29
 20
0
  0
SEQEND
  8
1
  0
POLYLINE
  8
1
  6
DOT
 66
1
  0
VERTEX
  8
1
 10
9
 20
0
  0
VERTEX
  8
1
 10
13
 20
-4
  0
VERTEX
  8
1
 10
37
 20
-4
  0
VERTEX
  8
1
 10
37
 20
0
  0
SEQEND
  8
1
  0
POLYLINE
  8
1
  6
DOT
 66
1
  0
VERTEX
  8
1
 10
-27
 20
0
  0
VERTEX
  8
1
 10
-25
 20
-2
  0
VERTEX
  8
1
 10
13
 20
-2
  0
VERTEX
  8
1
 10
13
 20
0
  0
SEQEND
  8
1
  0
POLYLINE
  8
1
  6
DOT
 66
1
  0
VERTEX
  8
1
 10
-31
 20
0
  0
VERTEX
  8
1
 10
-27
 20
-4
  0
VERTEX
  8
1
 10
-3
 20
-4
  0
VERTEX
  8
1
 10
-3
 20
0
  0
SEQEND
  8
1
  0
POLYLINE
  8
1
 70
1
 66
1
 40
0.5
 41
0.5
  0
VERTEX
  8
1
 10
-3.25
 20
-8
 42
1
  0
VERTEX
  8
1
 10
-2.75
 20
-8
 42
1
  0
SEQEND
  8
1
  0
TEXT
  8
1
 40
2.475
 41
0.75
  1
112
  7
STANDARD
 72
2
 73
2
 10
5.03234316507975
 20
7.9
 11
5.03234316507975
 21
7.9
  0
TEXT
  8
1
 40
2.475
 41
0.75
  1
14
  7
STANDARD
 72
2
 73
2
 10
-35.0676568349203
 20
7.9
 11
-35.0676568349203
 21
7.9
  0
TEXT
  8
1
 40
2.475
 41
0.75
  1
14
  7
STANDARD
 72
2
 73
3
 10
-32.1347783406575
 20
-12.8742841720581
 11
-32.1347783406575
 21
-12.8742841720581
  0
TEXT
  8
1
 40
2.475
 41
0.75
  1
12
  7
STANDARD
 72
2
 73
3
 10
7.86522165934245
 20
-12.8742841720581
 11
7.86522165934245
 21
-12.8742841720581
  0
TEXT
  8
1
 40
2.475
 41
0.75
  1
82/84
  7
STANDARD
 73
3
 10
-26.5955276489258
 20
-16.8742841720581
 11
-26.5955276489258
 21
-16.8742841720581
  0
LINE
  8
1
 10
9
 20
-12
 11
9
 21
-16
  0
LINE
  8
1
 10
-27
 20
-12
 11
-27
 21
-16
  0
LINE
  8
1
 10
-31
 20
-12
 11
-31
 21
-16
  0
TEXT
  8
1
 40
2.475
 41
0.75
  1
1
  7
STANDARD
 72
2
 73
3
 10
-10.7303066253662
 20
-12.8742841720581
 11
-10.7303066253662
 21
-12.8742841720581
  0
TEXT
  8
1
 40
2.475
 41
0.75
  1
3/5
  7
STANDARD
 72
2
 73
2
 10
-3.62400309244792
 20
-14.6277667681376
 11
-3.62400309244792
 21
-14.6277667681376
  0
TEXT
  8
1
 40
2.475
 41
0.75
  1
11
  7
STANDARD
 72
2
 73
3
 10
23.8652216593424
 20
-12.8742841720581
 11
23.8652216593424
 21
-12.8742841720581
  0
TEXT
  8
1
 40
2.475
 41
0.75
  1
2
  7
STANDARD
 72
2
 10
23.8652088994433
 20
13.2375
 11
23.8652088994433
 21
13.2375
  0
TEXT
  8
1
 40
2.475
 41
0.75
  1
4
  7
STANDARD
 72
2
 10
-16.1347783406576
 20
13.2375
 11
-16.1347783406576
 21
13.2375
  0
LINE
  8
1
 10
-3
 20
-12
 11
-3
 21
-16
  0
LINE
  8
1
 10
24.9999872401008
 20
16
 11
24.9999872401008
 21
12
  0
LINE
  8
1
 10
-15
 20
16
 11
-15
 21
12
  0
LINE
  8
1
 10
25
 20
-12
 11
25
 21
-16
  0
LINE
  8
1
 10
-15
 20
-12
 11
-15
 21
-16
  0
LINE
  8
1
  6
DOT
 10
-5.5
 20
-8
 11
-3.03333333333333
 21
-8
  0
LINE
  8
1
  6
DOT
 10
-8
 20
-8
 11
-11.0333333333333
 21
-8
  0
POLYLINE
  8
1
 66
1
  0
VERTEX
  8
1
 10
-6
 20
-6
  0
VERTEX
  8
1
 10
-8
 20
-8
  0
VERTEX
  8
1
 10
-6
 20
-10
  0
SEQEND
  8
1
  0
CIRCLE
  8
1
 10
-6.5
 20
-8
 40
1
  0
POLYLINE
  8
1
 66
1
  0
VERTEX
  8
1
 10
0
 20
-10
  0
VERTEX
  8
1
 10
2
 20
-8
  0
VERTEX
  8
1
 10
0
 20
-6
  0
SEQEND
  8
1
  0
CIRCLE
  8
1
 10
0.5
 20
-8
 40
1
  0
LINE
  8
1
  6
DOT
 10
-0.5
 20
-8
 11
-3
 21
-8
  0
LINE
  8
1
  6
DOT
 10
2
 20
-8
 11
5
 21
-8
  0
LINE
  8
1
 10
34
 20
2.01888587506577
 11
31
 21
2.01888587506577
  0
LINE
  8
1
 10
34
 20
2.01888587506577
 11
37
 21
0
  0
LINE
  8
1
 10
37
 20
4.01888587506577
 11
34
 21
2.01888587506577
  0
POLYLINE
  8
1
 66
1
  0
VERTEX
  8
1
 10
31
 20
4.01888587506577
  0
VERTEX
  8
1
 10
37
 20
4.01888587506577
  0
VERTEX
  8
1
 10
37
 20
0
  0
VERTEX
  8
1
 10
31
 20
0
  0
VERTEX
  8
1
 10
31
 20
4.01888587506577
  0
SEQEND
  8
1
  0
LINE
  8
1
 10
-6
 20
2.01888587506577
 11
-9
 21
2.01888587506577
  0
LINE
  8
1
 10
-6
 20
2.01888587506577
 11
-3
 21
0
  0
LINE
  8
1
 10
-3
 20
4.01888587506577
 11
-6
 21
2.01888587506577
  0
POLYLINE
  8
1
 66
1
  0
VERTEX
  8
1
 10
-9
 20
4.01888587506577
  0
VERTEX
  8
1
 10
-3
 20
4.01888587506577
  0
VERTEX
  8
1
 10
-3
 20
0
  0
VERTEX
  8
1
 10
-9
 20
0
  0
VERTEX
  8
1
 10
-9
 20
4.01888587506577
  0
SEQEND
  8
1
  0
LINE
  8
1
 10
5
 20
0
 11
7
 21
4
  0
POLYLINE
  8
1
 66
1
  0
VERTEX
  8
1
 10
3
 20
4
  0
VERTEX
  8
1
 10
9
 20
4
  0
VERTEX
  8
1
 10
9
 20
0
  0
VERTEX
  8
1
 10
3
 20
0
  0
VERTEX
  8
1
 10
3
 20
4
  0
SEQEND
  8
1
  0
LINE
  8
1
 10
-35
 20
0
 11
-33
 21
4
  0
POLYLINE
  8
1
 66
1
  0
VERTEX
  8
1
 10
-37
 20
4
  0
VERTEX
  8
1
 10
-31
 20
4
  0
VERTEX
  8
1
 10
-31
 20
0
  0
VERTEX
  8
1
 10
-37
 20
0
  0
VERTEX
  8
1
 10
-37
 20
4
  0
SEQEND
  8
1
  0
LINE
  8
1
 10
11.9999500595413
 20
2
 11
8.99995005954131
 21
0
  0
LINE
  8
1
 10
8.99995005954131
 20
4
 11
11.9999500595413
 21
2
  0
POLYLINE
  8
1
 66
1
  0
VERTEX
  8
1
 10
8.99995005954131
 20
4
  0
VERTEX
  8
1
 10
14.9999500595413
 20
4
  0
VERTEX
  8
1
 10
14.9999500595413
 20
0
  0
VERTEX
  8
1
 10
8.99995005954131
 20
0
  0
VERTEX
  8
1
 10
8.99995005954131
 20
4
  0
SEQEND
  8
1
  0
LINE
  8
1
 10
-28
 20
2
 11
-31
 21
0
  0
LINE
  8
1
 10
-31
 20
4
 11
-28
 21
2
  0
POLYLINE
  8
1
 66
1
  0
VERTEX
  8
1
 10
-31
 20
4
  0
VERTEX
  8
1
 10
-25
 20
4
  0
VERTEX
  8
1
 10
-25
 20
0
  0
VERTEX
  8
1
 10
-31
 20
0
  0
VERTEX
  8
1
 10
-31
 20
4
  0
SEQEND
  8
1
  0
LINE
  8
1
 10
5
 20
7.5
 11
9
 21
7.5
  0
LINE
  8
1
 10
5
 20
8
 11
5
 21
5
  0
LINE
  8
1
 10
5
 20
5.5
 11
9
 21
5.5
  0
LINE
  8
1
 10
9
 20
4
 11
9
 21
8
  0
LINE
  8
1
 10
-35
 20
7.5
 11
-31
 21
7.5
  0
LINE
  8
1
 10
-35
 20
8
 11
-35
 21
5
  0
LINE
  8
1
 10
-35
 20
5.5
 11
-31
 21
5.5
  0
LINE
  8
1
 10
-31
 20
4
 11
-31
 21
8
  0
LINE
  8
1
 10
25
 20
0
 11
25
 21
2
  0
INSERT
  8
1
  2
LCBP1
 10
25
 20
2
 50
90
  0
POLYLINE
  8
1
 66
1
  0
VERTEX
  8
1
 10
23
 20
8
  0
VERTEX
  8
1
 10
31
 20
8
  0
VERTEX
  8
1
 10
31
 20
0
  0
VERTEX
  8
1
 10
23
 20
0
  0
VERTEX
  8
1
 10
23
 20
8
  0
SEQEND
  8
1
  0
LINE
  8
1
 10
25
 20
8
 11
29
 21
0
  0
INSERT
  8
1
  2
LCA1
 10
29
 20
0
 50
-63.434948822922
  0
LINE
  8
1
 10
-15
 20
0
 11
-15
 21
2
  0
INSERT
  8
1
  2
LCBP1
 10
-15
 20
2
 50
90
  0
POLYLINE
  8
1
 66
1
  0
VERTEX
  8
1
 10
-17
 20
8
  0
VERTEX
  8
1
 10
-9
 20
8
  0
VERTEX
  8
1
 10
-9
 20
0
  0
VERTEX
  8
1
 10
-17
 20
0
  0
VERTEX
  8
1
 10
-17
 20
8
  0
SEQEND
  8
1
  0
LINE
  8
1
 10
-15
 20
8
 11
-11
 21
0
  0
INSERT
  8
1
  2
LCA1
 10
-11
 20
0
 50
-63.434948822922
  0
POLYLINE
  8
1
 66
1
  0
VERTEX
  8
1
 10
15
 20
8
  0
VERTEX
  8
1
 10
23
 20
8
  0
VERTEX
  8
1
 10
23
 20
0
  0
VERTEX
  8
1
 10
15
 20
0
  0
VERTEX
  8
1
 10
15
 20
8
  0
SEQEND
  8
1
  0
LINE
  8
1
 10
21
 20
0
 11
21
 21
2
  0
INSERT
  8
1
  2
LCBP1
 10
21
 20
2
 50
90
  0
LINE
  8
1
 10
17
 20
0
 11
17
 21
8
  0
INSERT
  8
1
  2
LCA1
 10
17
 20
8
 50
90
  0
POLYLINE
  8
1
 66
1
  0
VERTEX
  8
1
 10
-25
 20
8
  0
VERTEX
  8
1
 10
-17
 20
8
  0
VERTEX
  8
1
 10
-17
 20
0
  0
VERTEX
  8
1
 10
-25
 20
0
  0
VERTEX
  8
1
 10
-25
 20
8
  0
SEQEND
  8
1
  0
LINE
  8
1
 10
-19
 20
0
 11
-19
 21
2
  0
INSERT
  8
1
  2
LCBP1
 10
-19
 20
2
 50
90
  0
LINE
  8
1
 10
-23
 20
0
 11
-23
 21
8
  0
INSERT
  8
1
  2
LCA1
 10
-23
 20
8
 50
90
  0
CIRCLE
  8
CONNECTIONS
 10
-27
 20
-16
 40
0
  0
CIRCLE
  8
CONNECTIONS
 10
-31
 20
-16
 40
0
  0
CIRCLE
  8
CONNECTIONS
 10
9
 20
-16
 40
0
  0
CIRCLE
  8
CONNECTIONS
 10
-15
 20
16
 40
0
  0
CIRCLE
  8
CONNECTIONS
 10
-15
 20
-16
 40
0
  0
CIRCLE
  8
CONNECTIONS
 10
24.9999872401008
 20
16
 40
0
  0
CIRCLE
  8
CONNECTIONS
 10
25
 20
-16
 40
0
  0
CIRCLE
  8
CONNECTIONS
 10
-3
 20
-16
 40
0
  0
CIRCLE
  8
CONNECTIONS
 10
3
 20
2
 40
0
  0
CIRCLE
  8
CONNECTIONS
 10
-37
 20
2
 40
0
  0
ENDBLK
  8
0
  0
ENDSEC
  0
SECTION
  2
ENTITIES
  0
INSERT
  8
1
  2
B87762_00992113
 10
41
 20
16
  0
ENDSEC
  0
EOF
