  0
SECTION
  2
HEADER
  9
$LIMMIN
 10
0
 20
0
  9
$LIMMAX
 10
52.5
 20
74.25
  9
$EXTMIN
 10
0
 20
84
  9
$EXTMAX
 10
0
 20
52
  0
ENDSEC
  0
SECTION
  2
TABLES
  0
TABLE
  2
LTYPE
 70
9
  0
LTYPE
  2
CONTINUOUS
 70
64
  3
Solid line
 72
65
 73
0
 40
0
  0
LTYPE
  2
DASHED
 70
64
  3
__ __ __ __ __ __ __ __ __
 72
65
 73
2
 40
0.75
 49
0.5
 49
-0.25
  0
LTYPE
  2
DOT
 70
64
  3
...........................
 72
65
 73
2
 40
0.25
 49
0
 49
-0.25
  0
LTYPE
  2
DASHDOT
 70
64
  3
__ . __ . __ . __ . __ . __ . 
 72
65
 73
4
 40
1
 49
0.5
 49
-0.25
 49
0
 49
-0.25
  0
ENDTAB
  0
TABLE
  2
LAYER
 70
10
  0
LAYER
  2
1
 70
0
 62
7
  6
CONTINUOUS
  0
LAYER
  2
CONNECTIONS
 70
0
 62
-7
  6
CONTINUOUS
  0
ENDTAB
  0
ENDSEC
  0
SECTION
  2
BLOCKS
  0
BLOCK
  8
0
  2
TRICON
 70
0
 10
0
 20
0
  0
POLYLINE
  8
1
 70
1
 66
1
 40
0.5
 41
0.5
  0
VERTEX
  8
1
 10
-0.25
 20
0
 42
1
  0
VERTEX
  8
1
 10
0.25
 20
0
 42
1
  0
SEQEND
  8
1
  0
ENDBLK
  8
0
  0
BLOCK
  8
0
  2
TRICONSMALL
 70
0
 10
0
 20
0
  0
POLYLINE
  8
1
 70
1
 66
1
 40
0.25
 41
0.25
  0
VERTEX
  8
1
 10
-0.125
 20
0
 42
1
  0
VERTEX
  8
1
 10
0.125
 20
0
 42
1
  0
SEQEND
  8
1
  0
ENDBLK
  8
0
  0
BLOCK
  8
0
  2
TRICONCIRCLE
 70
0
 10
0
 20
0
  0
CIRCLE
  8
1
 10
0
 20
0
 40
0.5
  0
ENDBLK
  8
0
  0
BLOCK
  8
0
  2
LCBP0
 70
0
 10
0
 20
0
  0
LINE
  8
1
 10
0
 20
-0.46875
 11
0
 21
0.46875
  0
ENDBLK
  8
0
  0
BLOCK
  8
0
  2
LCBP1
 70
0
 10
0
 20
0
  0
LINE
  8
1
 10
0
 20
-0.625
 11
0
 21
0.625
  0
ENDBLK
  8
0
  0
BLOCK
  8
0
  2
LCBP2
 70
0
 10
0
 20
0
  0
LINE
  8
1
 10
0
 20
-0.9375
 11
0
 21
0.9375
  0
ENDBLK
  8
0
  0
BLOCK
  8
0
  2
LCA1
 70
0
 10
0
 20
0
  0
SOLID
  8
1
 62
7 
 10
0
 20
0
 11
-1.4
 21
-0.275
 12
-1.4
 22
0.275
 13
-1.4
 23
0.275
  0
ENDBLK
  8
0
  0
BLOCK
  8
0
  2
LCA2
 70
0
 10
0
 20
0
  0
SOLID
  8
1
 62
7 
 10
0
 20
0
 11
-1.65
 21
-0.525
 12
-1.65
 22
0.525
 13
-1.65
 23
0.525
  0
ENDBLK
  8
0
  0
BLOCK
  8
0
  2
LCA3
 70
0
 10
0
 20
0
  0
SOLID
  8
1
 62
7 
 10
0
 20
0
 11
-2.15
 21
-1.15
 12
-2.15
 22
1.15
 13
-2.15
 23
1.15
  0
ENDBLK
  8
0
  0
BLOCK
  8
0
  2
LCA1R
 70
0
 10
0
 20
0
  0
SOLID
  8
1
 62
7 
 10
0
 20
0
 11
1.4
 21
-0.275
 12
1.4
 22
0.275
 13
1.4
 23
0.275
  0
ENDBLK
  8
0
  0
BLOCK
  8
0
  2
LCA2R
 70
0
 10
0
 20
0
  0
SOLID
  8
1
 62
7 
 10
0
 20
0
 11
1.65
 21
-0.525
 12
1.65
 22
0.525
 13
1.65
 23
0.525
  0
ENDBLK
  8
0
  0
BLOCK
  8
0
  2
LCA3R
 70
0
 10
0
 20
0
  0
SOLID
  8
1
 62
7 
 10
0
 20
0
 11
2.15
 21
-1.15
 12
2.15
 22
1.15
 13
2.15
 23
1.15
  0
ENDBLK
  8
0
  0
BLOCK
  8
0
  2
B1577_00992092
 70
0
 10
0
 20
0
  0
POLYLINE
  8
1
 66
1
  0
VERTEX
  8
1
 10
-38
 20
26
  0
VERTEX
  8
1
 10
38
 20
26
  0
VERTEX
  8
1
 10
38
 20
-26
  0
VERTEX
  8
1
 10
-38
 20
-26
  0
VERTEX
  8
1
 10
-38
 20
26
  0
SEQEND
  8
1
  0
LINE
  8
1
 10
-1.9
 20
-2
 11
-8
 21
-2
  0
LINE
  8
1
 10
42
 20
-2
 11
9.31370849898476
 21
-2
  0
TEXT
  8
1
 40
2.475
 41
0.75
  1
2
  7
STANDARD
 72
2
 10
43
 20
-1.26249999999999
 11
43
 21
-1.26249999999999
  0
LINE
  8
1
 10
-16
 20
-20
 11
29
 21
-20
  0
LINE
  8
1
 10
-16
 20
10
 11
-16
 21
-20
  0
TEXT
  8
1
 40
2.475
 41
0.75
  1
1
  7
STANDARD
 72
2
 10
-39.5
 20
22.7375
 11
-39.5
 21
22.7375
  0
LINE
  8
1
 10
-42
 20
22
 11
-16
 21
22
  0
LINE
  8
1
 10
-16
 20
22
 11
-16
 21
18
  0
ARC
  8
1
 10
-8
 20
-30
 40
9
 50
70.528596800055
 51
109.471050579339
  0
ARC
  8
1
 10
-8
 20
-10
 40
9
 50
250.52865870751
 51
289.47139531546
  0
LINE
  8
1
 10
-8
 20
-2
 11
-8
 21
-19
  0
POLYLINE
  8
1
 66
1
  0
VERTEX
  8
1
 10
37
 20
-21
  0
VERTEX
  8
1
 10
39
 20
-20
  0
VERTEX
  8
1
 10
37
 20
-19
  0
SEQEND
  8
1
  0
LINE
  8
1
 10
35
 20
-18
 11
35
 21
-20
  0
LINE
  8
1
 10
33
 20
-22
 11
33
 21
-20
  0
LINE
  8
1
 10
31
 20
-18
 11
31
 21
-20
  0
POLYLINE
  8
1
 66
1
  0
VERTEX
  8
1
 10
29
 20
-18
  0
VERTEX
  8
1
 10
37
 20
-18
  0
VERTEX
  8
1
 10
37
 20
-22
  0
VERTEX
  8
1
 10
29
 20
-22
  0
VERTEX
  8
1
 10
29
 20
-18
  0
SEQEND
  8
1
  0
LINE
  8
1
  6
DASHED
 10
3.75685424949224
 20
3.65685424949228
 11
3.75685424949224
 21
-7.65685424949234
  0
POLYLINE
  8
1
 66
1
  0
VERTEX
  8
1
 10
1.75688137622825
 20
-5.6568813762285
  0
VERTEX
  8
1
 10
3.75685424949225
 20
-7.6568542494925
  0
VERTEX
  8
1
 10
5.75686650869025
 20
-5.6568419902945
  0
SEQEND
  8
1
  0
POLYLINE
  8
1
 66
1
  0
VERTEX
  8
1
 10
3.75685424949225
 20
3.65685424949225
  0
VERTEX
  8
1
 10
-1.9
 20
-2
  0
VERTEX
  8
1
 10
3.75685424949225
 20
-7.6568542494925
  0
VERTEX
  8
1
 10
9.4137084989845
 20
-2
  0
VERTEX
  8
1
 10
3.75685424949225
 20
3.65685424949225
  0
SEQEND
  8
1
  0
POLYLINE
  8
1
 66
1
  0
VERTEX
  8
1
 10
1.65688137622825
 20
-5.6568813762285
  0
VERTEX
  8
1
 10
3.65685424949225
 20
-7.6568542494925
  0
VERTEX
  8
1
 10
5.65686650869025
 20
-5.6568419902945
  0
SEQEND
  8
1
  0
POLYLINE
  8
1
 66
1
  0
VERTEX
  8
1
 10
3.65685424949225
 20
3.65685424949225
  0
VERTEX
  8
1
 10
-2
 20
-2
  0
VERTEX
  8
1
 10
3.65685424949225
 20
-7.6568542494925
  0
VERTEX
  8
1
 10
9.313708498985
 20
-2
  0
VERTEX
  8
1
 10
3.65685424949225
 20
3.65685424949225
  0
SEQEND
  8
1
  0
POLYLINE
  8
1
 70
1
 66
1
 40
0.5
 41
0.5
  0
VERTEX
  8
1
 10
29.75
 20
-2
 42
1
  0
VERTEX
  8
1
 10
30.25
 20
-2
 42
1
  0
SEQEND
  8
1
  0
LINE
  8
1
 10
34.5
 20
9.46965678720328
 11
25.5
 21
11.4696567872033
  0
INSERT
  8
1
  2
LCA1
 10
25.5
 20
11.4696567872033
 50
167.471192290848
  0
POLYLINE
  8
1
 66
1
  0
VERTEX
  8
1
 10
30
 20
12.9696567872033
  0
VERTEX
  8
1
 10
32
 20
12.5529901205366
  0
VERTEX
  8
1
 10
28
 20
11.7196567872033
  0
VERTEX
  8
1
 10
32
 20
10.8863234538699
  0
VERTEX
  8
1
 10
28
 20
10.0529901205366
  0
VERTEX
  8
1
 10
32
 20
9.2196567872033
  0
VERTEX
  8
1
 10
28
 20
8.38632345386995
  0
VERTEX
  8
1
 10
30
 20
7.9696567872033
  0
SEQEND
  8
1
  0
LINE
  8
1
 10
30
 20
-2.03034321279672
 11
30
 21
1.96965678720328
  0
POLYLINE
  8
1
 66
1
  0
VERTEX
  8
1
 10
30.3
 20
3.1196567872033
  0
VERTEX
  8
1
 10
30.3
 20
4.1196567872033
  0
VERTEX
  8
1
 10
29.3
 20
6.6196567872033
  0
SEQEND
  8
1
  0
LINE
  8
1
 10
30.3
 20
5.81965678720328
 11
30.3
 21
6.81965678720328
  0
POLYLINE
  8
1
 66
1
  0
VERTEX
  8
1
 10
27
 20
1.96965678720325
  0
VERTEX
  8
1
 10
33
 20
1.96965678720325
  0
VERTEX
  8
1
 10
33
 20
7.9696567872033
  0
VERTEX
  8
1
 10
27
 20
7.9696567872033
  0
VERTEX
  8
1
 10
27
 20
1.96965678720325
  0
SEQEND
  8
1
  0
LINE
  8
1
 10
-16
 20
18
 11
-16
 21
16
  0
INSERT
  8
1
  2
LCBP1
 10
-16
 20
16
 50
-90
  0
LINE
  8
1
 10
-16
 20
10
 11
-16
 21
12
  0
INSERT
  8
1
  2
LCBP1
 10
-16
 20
12
 50
90
  0
LINE
  8
1
 10
-24
 20
18
 11
-24
 21
10
  0
INSERT
  8
1
  2
LCA1
 10
-24
 20
10
 50
-90
  0
POLYLINE
  8
1
 66
1
  0
VERTEX
  8
1
 10
-28
 20
18
  0
VERTEX
  8
1
 10
-20
 20
18
  0
VERTEX
  8
1
 10
-20
 20
10
  0
VERTEX
  8
1
 10
-28
 20
10
  0
VERTEX
  8
1
 10
-28
 20
18
  0
SEQEND
  8
1
  0
POLYLINE
  8
1
 66
1
  0
VERTEX
  8
1
 10
-20
 20
18
  0
VERTEX
  8
1
 10
-12
 20
18
  0
VERTEX
  8
1
 10
-12
 20
10
  0
VERTEX
  8
1
 10
-20
 20
10
  0
VERTEX
  8
1
 10
-20
 20
18
  0
SEQEND
  8
1
  0
LINE
  8
1
 10
-32
 20
17.5
 11
-28
 21
17.5
  0
LINE
  8
1
 10
-32
 20
18
 11
-32
 21
15
  0
LINE
  8
1
 10
-32
 20
15.5
 11
-28
 21
15.5
  0
LINE
  8
1
 10
-28
 20
14
 11
-28
 21
18
  0
LINE
  8
1
 10
-32
 20
10
 11
-30
 21
14
  0
POLYLINE
  8
1
 66
1
  0
VERTEX
  8
1
 10
-34
 20
14
  0
VERTEX
  8
1
 10
-28
 20
14
  0
VERTEX
  8
1
 10
-28
 20
10
  0
VERTEX
  8
1
 10
-34
 20
10
  0
VERTEX
  8
1
 10
-34
 20
14
  0
SEQEND
  8
1
  0
POLYLINE
  8
1
 66
1
  0
VERTEX
  8
1
 10
-7
 20
12
  0
VERTEX
  8
1
 10
-7.41666666666675
 20
10
  0
VERTEX
  8
1
 10
-8.25
 20
14
  0
VERTEX
  8
1
 10
-9.08333333333325
 20
10
  0
VERTEX
  8
1
 10
-9.91666666666675
 20
14
  0
VERTEX
  8
1
 10
-10.75
 20
10
  0
VERTEX
  8
1
 10
-11.5833333333333
 20
14
  0
VERTEX
  8
1
 10
-12
 20
12
  0
SEQEND
  8
1
  0
CIRCLE
  8
CONNECTIONS
 10
42
 20
-2
 40
0
  0
CIRCLE
  8
CONNECTIONS
 10
-42
 20
22
 40
0
  0
CIRCLE
  8
CONNECTIONS
 10
30
 20
7.9696567872033
 40
0
  0
CIRCLE
  8
CONNECTIONS
 10
-34
 20
12
 40
0
  0
ENDBLK
  8
0
  0
ENDSEC
  0
SECTION
  2
ENTITIES
  0
INSERT
  8
1
  2
B1577_00992092
 10
42
 20
26
  0
ENDSEC
  0
EOF
