  0
SECTION
  2
HEADER
  9
$LIMMIN
 10
0
 20
0
  9
$LIMMAX
 10
52.5
 20
74.25
  9
$EXTMIN
 10
0
 20
52
  9
$EXTMAX
 10
0
 20
42
  0
ENDSEC
  0
SECTION
  2
TABLES
  0
TABLE
  2
LTYPE
 70
9
  0
LTYPE
  2
CONTINUOUS
 70
64
  3
Solid line
 72
65
 73
0
 40
0
  0
LTYPE
  2
DASHED
 70
64
  3
__ __ __ __ __ __ __ __ __
 72
65
 73
2
 40
0.75
 49
0.5
 49
-0.25
  0
LTYPE
  2
DOT
 70
64
  3
...........................
 72
65
 73
2
 40
0.25
 49
0
 49
-0.25
  0
LTYPE
  2
DASHDOT
 70
64
  3
__ . __ . __ . __ . __ . __ . 
 72
65
 73
4
 40
1
 49
0.5
 49
-0.25
 49
0
 49
-0.25
  0
ENDTAB
  0
TABLE
  2
LAYER
 70
10
  0
LAYER
  2
1
 70
0
 62
7
  6
CONTINUOUS
  0
LAYER
  2
CONNECTIONS
 70
0
 62
-7
  6
CONTINUOUS
  0
ENDTAB
  0
ENDSEC
  0
SECTION
  2
BLOCKS
  0
BLOCK
  8
0
  2
TRICON
 70
0
 10
0
 20
0
  0
POLYLINE
  8
1
 70
1
 66
1
 40
0.5
 41
0.5
  0
VERTEX
  8
1
 10
-0.25
 20
0
 42
1
  0
VERTEX
  8
1
 10
0.25
 20
0
 42
1
  0
SEQEND
  8
1
  0
ENDBLK
  8
0
  0
BLOCK
  8
0
  2
TRICONSMALL
 70
0
 10
0
 20
0
  0
POLYLINE
  8
1
 70
1
 66
1
 40
0.25
 41
0.25
  0
VERTEX
  8
1
 10
-0.125
 20
0
 42
1
  0
VERTEX
  8
1
 10
0.125
 20
0
 42
1
  0
SEQEND
  8
1
  0
ENDBLK
  8
0
  0
BLOCK
  8
0
  2
TRICONCIRCLE
 70
0
 10
0
 20
0
  0
CIRCLE
  8
1
 10
0
 20
0
 40
0.5
  0
ENDBLK
  8
0
  0
BLOCK
  8
0
  2
LCBP0
 70
0
 10
0
 20
0
  0
LINE
  8
1
 10
0
 20
-0.46875
 11
0
 21
0.46875
  0
ENDBLK
  8
0
  0
BLOCK
  8
0
  2
LCBP1
 70
0
 10
0
 20
0
  0
LINE
  8
1
 10
0
 20
-0.625
 11
0
 21
0.625
  0
ENDBLK
  8
0
  0
BLOCK
  8
0
  2
LCBP2
 70
0
 10
0
 20
0
  0
LINE
  8
1
 10
0
 20
-0.9375
 11
0
 21
0.9375
  0
ENDBLK
  8
0
  0
BLOCK
  8
0
  2
LCA1
 70
0
 10
0
 20
0
  0
SOLID
  8
1
 62
7 
 10
0
 20
0
 11
-1.4
 21
-0.275
 12
-1.4
 22
0.275
 13
-1.4
 23
0.275
  0
ENDBLK
  8
0
  0
BLOCK
  8
0
  2
LCA2
 70
0
 10
0
 20
0
  0
SOLID
  8
1
 62
7 
 10
0
 20
0
 11
-1.65
 21
-0.525
 12
-1.65
 22
0.525
 13
-1.65
 23
0.525
  0
ENDBLK
  8
0
  0
BLOCK
  8
0
  2
LCA3
 70
0
 10
0
 20
0
  0
SOLID
  8
1
 62
7 
 10
0
 20
0
 11
-2.15
 21
-1.15
 12
-2.15
 22
1.15
 13
-2.15
 23
1.15
  0
ENDBLK
  8
0
  0
BLOCK
  8
0
  2
LCA1R
 70
0
 10
0
 20
0
  0
SOLID
  8
1
 62
7 
 10
0
 20
0
 11
1.4
 21
-0.275
 12
1.4
 22
0.275
 13
1.4
 23
0.275
  0
ENDBLK
  8
0
  0
BLOCK
  8
0
  2
LCA2R
 70
0
 10
0
 20
0
  0
SOLID
  8
1
 62
7 
 10
0
 20
0
 11
1.65
 21
-0.525
 12
1.65
 22
0.525
 13
1.65
 23
0.525
  0
ENDBLK
  8
0
  0
BLOCK
  8
0
  2
LCA3R
 70
0
 10
0
 20
0
  0
SOLID
  8
1
 62
7 
 10
0
 20
0
 11
2.15
 21
-1.15
 12
2.15
 22
1.15
 13
2.15
 23
1.15
  0
ENDBLK
  8
0
  0
BLOCK
  8
0
  2
B458_00992043
 70
0
 10
0
 20
0
  0
POLYLINE
  8
1
  6
DOT
 66
1
  0
VERTEX
  8
1
 10
-5
 20
3
  0
VERTEX
  8
1
 10
-1
 20
7
  0
VERTEX
  8
1
 10
8
 20
7
  0
VERTEX
  8
1
 10
8
 20
2
  0
VERTEX
  8
1
 10
4
 20
2
  0
SEQEND
  8
1
  0
LINE
  8
1
 10
-5
 20
9
 11
-5
 21
3
  0
POLYLINE
  8
1
 66
1
  0
VERTEX
  8
1
 10
-14
 20
3
  0
VERTEX
  8
1
 10
4
 20
3
  0
VERTEX
  8
1
 10
4
 20
-5
  0
VERTEX
  8
1
 10
-14
 20
-5
  0
VERTEX
  8
1
 10
-14
 20
3
  0
SEQEND
  8
1
  0
LINE
  8
1
 10
-0.5
 20
-1
 11
-12
 21
-1
  0
LINE
  8
1
 10
-5
 20
-1
 11
-5
 21
3
  0
POLYLINE
  8
1
 70
1
 66
1
 40
0.5
 41
0.5
  0
VERTEX
  8
1
 10
-5.25
 20
-1
 42
1
  0
VERTEX
  8
1
 10
-4.75
 20
-1
 42
1
  0
SEQEND
  8
1
  0
POLYLINE
  8
1
 66
1
  0
VERTEX
  8
1
 10
-10
 20
1
  0
VERTEX
  8
1
 10
-12
 20
-1
  0
VERTEX
  8
1
 10
-10
 20
-3
  0
SEQEND
  8
1
  0
LINE
  8
1
 10
-12
 20
-1
 11
-14
 21
-1
  0
LINE
  8
1
 10
2
 20
-1
 11
4
 21
-1
  0
CIRCLE
  8
1
 10
0.5
 20
-1
 40
1
  0
POLYLINE
  8
1
 66
1
  0
VERTEX
  8
1
 10
0
 20
1
  0
VERTEX
  8
1
 10
2
 20
-1
  0
VERTEX
  8
1
 10
0
 20
-3
  0
SEQEND
  8
1
  0
LINE
  8
1
 10
4
 20
-1
 11
8
 21
-1
  0
LINE
  8
1
 10
-18
 20
-1
 11
-14
 21
-1
  0
ARC
  8
1
 10
-5
 20
-19
 40
9
 50
70.528596800055
 51
109.471050579339
  0
ARC
  8
1
 10
-5
 20
1
 40
9
 50
250.52865870751
 51
289.47139531546
  0
LINE
  8
1
 10
-26
 20
-9
 11
8
 21
-9
  0
TEXT
  8
1
 40
2.475
 41
0.75
  1
2
  7
STANDARD
 72
2
 10
-5
 20
-20.7625
 11
-5
 21
-20.7625
  0
TEXT
  8
1
 40
2.475
 41
0.75
  1
1
  7
STANDARD
 10
-26.5
 20
-8.2625
  0
POLYLINE
  8
1
 70
1
 66
1
 40
0.5
 41
0.5
  0
VERTEX
  8
1
 10
-5.25
 20
-13
 42
1
  0
VERTEX
  8
1
 10
-4.75
 20
-13
 42
1
  0
SEQEND
  8
1
  0
POLYLINE
  8
1
 70
1
 66
1
 40
0.5
 41
0.5
  0
VERTEX
  8
1
 10
-18.25
 20
-9
 42
1
  0
VERTEX
  8
1
 10
-17.75
 20
-9
 42
1
  0
SEQEND
  8
1
  0
LINE
  8
1
 10
-5
 20
-10
 11
-5
 21
-21
  0
LINE
  8
1
 10
8
 20
-13
 11
-5
 21
-13
  0
LINE
  8
1
 10
8
 20
-1
 11
8
 21
-13
  0
LINE
  8
1
 10
-18
 20
-1
 11
-18
 21
-9
  0
ARC
  8
1
 10
-1
 20
13
 40
4
 50
270
 51
90
  0
ARC
  8
1
 10
-9
 20
13
 40
4
 50
90
 51
270
  0
LINE
  8
1
 10
-9
 20
17
 11
-1
 21
17
  0
LINE
  8
1
 10
-9
 20
9
 11
-1
 21
9
  0
POLYLINE
  8
1
 66
1
  0
VERTEX
  8
1
 10
-22
 20
21
  0
VERTEX
  8
1
 10
26
 20
21
  0
VERTEX
  8
1
 10
26
 20
-17
  0
VERTEX
  8
1
 10
-22
 20
-17
  0
VERTEX
  8
1
 10
-22
 20
21
  0
SEQEND
  8
1
  0
POLYLINE
  8
1
 66
1
  0
VERTEX
  8
1
 10
20
 20
-8
  0
VERTEX
  8
1
 10
22
 20
-9
  0
VERTEX
  8
1
 10
20
 20
-10
  0
SEQEND
  8
1
  0
LINE
  8
1
 10
8
 20
-9
 11
12
 21
-9
  0
LINE
  8
1
 10
18
 20
-11
 11
18
 21
-9
  0
LINE
  8
1
 10
16
 20
-7
 11
16
 21
-9
  0
LINE
  8
1
 10
14
 20
-11
 11
14
 21
-9
  0
POLYLINE
  8
1
 66
1
  0
VERTEX
  8
1
 10
12
 20
-7
  0
VERTEX
  8
1
 10
20
 20
-7
  0
VERTEX
  8
1
 10
20
 20
-11
  0
VERTEX
  8
1
 10
12
 20
-11
  0
VERTEX
  8
1
 10
12
 20
-7
  0
SEQEND
  8
1
  0
CIRCLE
  8
CONNECTIONS
 10
-26
 20
-9
 40
0
  0
CIRCLE
  8
CONNECTIONS
 10
-5
 20
-21
 40
0
  0
ENDBLK
  8
0
  0
ENDSEC
  0
SECTION
  2
ENTITIES
  0
INSERT
  8
1
  2
B458_00992043
 10
26
 20
21
  0
ENDSEC
  0
EOF
