  0
SECTION
  2
HEADER
  9
$LIMMIN
 10
0
 20
0
  9
$LIMMAX
 10
52.5
 20
74.25
  9
$EXTMIN
 10
0
 20
53.1346900304159
  9
$EXTMAX
 10
0
 20
23.9252594629923
  0
ENDSEC
  0
SECTION
  2
TABLES
  0
TABLE
  2
LTYPE
 70
9
  0
LTYPE
  2
CONTINUOUS
 70
64
  3
Solid line
 72
65
 73
0
 40
0
  0
LTYPE
  2
DASHED
 70
64
  3
__ __ __ __ __ __ __ __ __
 72
65
 73
2
 40
0.75
 49
0.5
 49
-0.25
  0
LTYPE
  2
DOT
 70
64
  3
...........................
 72
65
 73
2
 40
0.25
 49
0
 49
-0.25
  0
LTYPE
  2
DASHDOT
 70
64
  3
__ . __ . __ . __ . __ . __ . 
 72
65
 73
4
 40
1
 49
0.5
 49
-0.25
 49
0
 49
-0.25
  0
ENDTAB
  0
TABLE
  2
LAYER
 70
10
  0
LAYER
  2
1
 70
0
 62
7
  6
CONTINUOUS
  0
LAYER
  2
CONNECTIONS
 70
0
 62
-7
  6
CONTINUOUS
  0
ENDTAB
  0
ENDSEC
  0
SECTION
  2
BLOCKS
  0
BLOCK
  8
0
  2
TRICON
 70
0
 10
0
 20
0
  0
POLYLINE
  8
1
 70
1
 66
1
 40
0.5
 41
0.5
  0
VERTEX
  8
1
 10
-0.25
 20
0
 42
1
  0
VERTEX
  8
1
 10
0.25
 20
0
 42
1
  0
SEQEND
  8
1
  0
ENDBLK
  8
0
  0
BLOCK
  8
0
  2
TRICONSMALL
 70
0
 10
0
 20
0
  0
POLYLINE
  8
1
 70
1
 66
1
 40
0.25
 41
0.25
  0
VERTEX
  8
1
 10
-0.125
 20
0
 42
1
  0
VERTEX
  8
1
 10
0.125
 20
0
 42
1
  0
SEQEND
  8
1
  0
ENDBLK
  8
0
  0
BLOCK
  8
0
  2
TRICONCIRCLE
 70
0
 10
0
 20
0
  0
CIRCLE
  8
1
 10
0
 20
0
 40
0.5
  0
ENDBLK
  8
0
  0
BLOCK
  8
0
  2
LCBP0
 70
0
 10
0
 20
0
  0
LINE
  8
1
 10
0
 20
-0.46875
 11
0
 21
0.46875
  0
ENDBLK
  8
0
  0
BLOCK
  8
0
  2
LCBP1
 70
0
 10
0
 20
0
  0
LINE
  8
1
 10
0
 20
-0.625
 11
0
 21
0.625
  0
ENDBLK
  8
0
  0
BLOCK
  8
0
  2
LCBP2
 70
0
 10
0
 20
0
  0
LINE
  8
1
 10
0
 20
-0.9375
 11
0
 21
0.9375
  0
ENDBLK
  8
0
  0
BLOCK
  8
0
  2
LCA1
 70
0
 10
0
 20
0
  0
SOLID
  8
1
 62
7 
 10
0
 20
0
 11
-1.4
 21
-0.275
 12
-1.4
 22
0.275
 13
-1.4
 23
0.275
  0
ENDBLK
  8
0
  0
BLOCK
  8
0
  2
LCA2
 70
0
 10
0
 20
0
  0
SOLID
  8
1
 62
7 
 10
0
 20
0
 11
-1.65
 21
-0.525
 12
-1.65
 22
0.525
 13
-1.65
 23
0.525
  0
ENDBLK
  8
0
  0
BLOCK
  8
0
  2
LCA3
 70
0
 10
0
 20
0
  0
SOLID
  8
1
 62
7 
 10
0
 20
0
 11
-2.15
 21
-1.15
 12
-2.15
 22
1.15
 13
-2.15
 23
1.15
  0
ENDBLK
  8
0
  0
BLOCK
  8
0
  2
LCA1R
 70
0
 10
0
 20
0
  0
SOLID
  8
1
 62
7 
 10
0
 20
0
 11
1.4
 21
-0.275
 12
1.4
 22
0.275
 13
1.4
 23
0.275
  0
ENDBLK
  8
0
  0
BLOCK
  8
0
  2
LCA2R
 70
0
 10
0
 20
0
  0
SOLID
  8
1
 62
7 
 10
0
 20
0
 11
1.65
 21
-0.525
 12
1.65
 22
0.525
 13
1.65
 23
0.525
  0
ENDBLK
  8
0
  0
BLOCK
  8
0
  2
LCA3R
 70
0
 10
0
 20
0
  0
SOLID
  8
1
 62
7 
 10
0
 20
0
 11
2.15
 21
-1.15
 12
2.15
 22
1.15
 13
2.15
 23
1.15
  0
ENDBLK
  8
0
  0
BLOCK
  8
0
  2
B2107_00992013
 70
0
 10
0
 20
0
  0
LINE
  8
1
 10
-14.0030097484589
 20
9.96262996991475
 11
-23.0030097484589
 21
0.962629969914748
  0
POLYLINE
  8
1
 66
1
  0
VERTEX
  8
1
 10
-23.0030097484589
 20
9.96262996991474
  0
VERTEX
  8
1
 10
-5.00300974845886
 20
9.96262996991474
  0
VERTEX
  8
1
 10
-5.00300974845886
 20
-8.03737003008525
  0
VERTEX
  8
1
 10
-23.0030097484589
 20
-8.03737003008525
  0
VERTEX
  8
1
 10
-23.0030097484589
 20
9.96262996991474
  0
SEQEND
  8
1
  0
TEXT
  8
1
 40
1.8
 41
0.75
  1
PNP
  7
STANDARD
 72
1
 73
3
 10
-13.6030097484589
 20
-8.96210945447285
 11
-13.6030097484589
 21
-8.96210945447285
  0
TEXT
  8
1
 40
1.8
 41
0.75
  1
+24V
  7
STANDARD
 10
18.8800814469655
 20
8.1373697121938
  0
TEXT
  8
1
 40
1.8
 41
0.75
  1
0V
  7
STANDARD
 10
18.8000575224559
 20
-8.13737003008525
  0
TEXT
  8
1
 40
1.8
 41
0.75
  1
5
  7
STANDARD
 10
-5.00300974845886
 20
-2.58789054552715
  0
TEXT
  8
1
 40
1.8
 41
0.75
  1
BU
  7
STANDARD
 10
-0.00300974845886041
 20
-6.58789054552715
  0
TEXT
  8
1
 40
1.8
 41
0.75
  1
3
  7
STANDARD
 10
-5.00300974845886
 20
-6.58789054552715
  0
TEXT
  8
1
 40
1.8
 41
0.75
  1
WH
  7
STANDARD
 10
-0.00300974845886041
 20
1.41210945447285
  0
TEXT
  8
1
 40
1.8
 41
0.75
  1
BK
  7
STANDARD
 10
-0.00300974845886041
 20
5.41210945447286
  0
TEXT
  8
1
 40
1.8
 41
0.75
  1
BN
  7
STANDARD
 10
-0.00300974845886041
 20
9.41210945447285
  0
TEXT
  8
1
 40
1.8
 41
0.75
  1
2
  7
STANDARD
 10
-5.00300974845886
 20
1.41210945447285
  0
TEXT
  8
1
 40
1.8
 41
0.75
  1
4
  7
STANDARD
 10
-5.00300974845886
 20
5.41210945447286
  0
TEXT
  8
1
 40
1.8
 41
0.75
  1
1
  7
STANDARD
 10
-5.00300974845886
 20
9.41210945447285
  0
TEXT
  8
1
 40
1.8
 41
0.75
  1
P
  7
STANDARD
 72
2
 10
-24.0858640193939
 20
7.13737034797668
 11
-24.0858640193939
 21
7.13737034797668
  0
LINE
  8
1
 10
-23.0030097484589
 20
6.46262996991475
 11
-23.0030097484589
 21
5.46262996991475
  0
LINE
  8
1
 10
-23.0030097484589
 20
6.46262996991475
 11
-22.0030097484589
 21
5.96262996991475
  0
LINE
  8
1
 10
-22.0030097484589
 20
5.96262996991475
 11
-23.0030097484589
 21
5.46262996991475
  0
LINE
  8
1
 10
-23.0030097484589
 20
6.46262996991475
 11
-23.0030097484589
 21
5.46262996991475
  0
LINE
  8
1
 10
-26.0030097484589
 20
5.96262996991475
 11
-23.0030097484589
 21
5.96262996991475
  0
LINE
  8
1
 10
-0.00300974845886041
 20
-7.03737003008525
 11
0.99699025154114
 21
-7.03737003008525
  0
ARC
  8
1
 10
-1.00300974845886
 20
-7.03737003008525
 40
1
 50
270
 51
90
  0
LINE
  8
1
 10
-0.00300974845886041
 20
8.96262996991475
 11
0.99699025154114
 21
8.96262996991475
  0
ARC
  8
1
 10
-1.00300974845886
 20
8.96262996991475
 40
1
 50
270
 51
90
  0
LINE
  8
1
 10
-0.00300974845886041
 20
0.962629969914748
 11
0.99699025154114
 21
0.962629969914748
  0
ARC
  8
1
 10
-1.00300974845886
 20
0.962629969914748
 40
1
 50
270
 51
90
  0
LINE
  8
1
 10
-0.00300974845886041
 20
4.96262996991475
 11
0.99699025154114
 21
4.96262996991475
  0
ARC
  8
1
 10
-1.00300974845886
 20
4.96262996991475
 40
1
 50
270
 51
90
  0
LINE
  8
1
 10
-5.00300974845886
 20
-7.03737003008525
 11
-2.00300974845886
 21
-7.03737003008525
  0
LINE
  8
1
 10
-5.00300974845886
 20
-3.03737003008525
 11
-2.00300974845886
 21
-3.03737003008525
  0
LINE
  8
1
 10
-5.00300974845886
 20
0.962629969914748
 11
-2.00300974845886
 21
0.962629969914748
  0
LINE
  8
1
 10
-5.00300974845886
 20
4.96262996991475
 11
-2.00300974845886
 21
4.96262996991475
  0
LINE
  8
1
 10
-5.00300974845886
 20
8.96262996991475
 11
-2.00300974845886
 21
8.96262996991475
  0
SOLID
  8
1
 10
-2.00300974845886
 20
-6.78737003008525
 11
-0.50300974845886
 21
-6.78737003008525
 12
-2.00300974845886
 22
-7.28737003008525
 13
-0.50300974845886
 23
-7.28737003008525
  0
SOLID
  8
1
 10
-0.50300974845886
 20
-7.28737003008525
 11
-2.00300974845886
 21
-7.28737003008525
 12
-2.00300974845886
 22
-7.28737003008525
 13
-2.00300974845886
 23
-6.78737003008525
  0
SOLID
  8
1
 10
-2.00300974845886
 20
-2.78737003008525
 11
-0.50300974845886
 21
-2.78737003008525
 12
-2.00300974845886
 22
-3.28737003008525
 13
-0.50300974845886
 23
-3.28737003008525
  0
SOLID
  8
1
 10
-0.50300974845886
 20
-3.28737003008525
 11
-2.00300974845886
 21
-3.28737003008525
 12
-2.00300974845886
 22
-3.28737003008525
 13
-2.00300974845886
 23
-2.78737003008525
  0
SOLID
  8
1
 10
-2.00300974845886
 20
1.21262996991475
 11
-0.50300974845886
 21
1.21262996991475
 12
-2.00300974845886
 22
0.712629969914748
 13
-0.50300974845886
 23
0.712629969914748
  0
SOLID
  8
1
 10
-0.50300974845886
 20
0.712629969914748
 11
-2.00300974845886
 21
0.712629969914748
 12
-2.00300974845886
 22
0.712629969914748
 13
-2.00300974845886
 23
1.21262996991475
  0
SOLID
  8
1
 10
-2.00300974845886
 20
5.21262996991475
 11
-0.50300974845886
 21
5.21262996991475
 12
-2.00300974845886
 22
4.71262996991475
 13
-0.50300974845886
 23
4.71262996991475
  0
SOLID
  8
1
 10
-0.50300974845886
 20
4.71262996991475
 11
-2.00300974845886
 21
4.71262996991475
 12
-2.00300974845886
 22
4.71262996991475
 13
-2.00300974845886
 23
5.21262996991475
  0
SOLID
  8
1
 10
-2.00300974845886
 20
9.21262996991475
 11
-0.50300974845886
 21
9.21262996991475
 12
-2.00300974845886
 22
8.71262996991475
 13
-0.50300974845886
 23
8.71262996991475
  0
SOLID
  8
1
 10
-0.50300974845886
 20
8.71262996991475
 11
-2.00300974845886
 21
8.71262996991475
 12
-2.00300974845886
 22
8.71262996991475
 13
-2.00300974845886
 23
9.21262996991475
  0
TEXT
  8
1
 40
1.125
 41
0.75
  1
L
  7
STANDARD
 72
1
 73
3
 10
8.81045626004536
 20
3.18137981096903
 11
8.81045626004536
 21
3.18137981096903
  0
TEXT
  8
1
 40
1.8
 41
0.75
  1
R
  7
STANDARD
 72
1
 73
3
 10
7.09699025154114
 20
3.96314984957376
 11
7.09699025154114
 21
3.96314984957376
  0
TEXT
  8
1
 40
1.125
 41
0.75
  1
L
  7
STANDARD
 72
1
 73
3
 10
10.8104562600454
 20
7.18137981096903
 11
10.8104562600454
 21
7.18137981096903
  0
TEXT
  8
1
 40
1.8
 41
0.75
  1
R
  7
STANDARD
 72
1
 73
3
 10
9.09699025154112
 20
7.96314984957376
 11
9.09699025154112
 21
7.96314984957376
  0
LINE
  8
1
 10
0.99699025154114
 20
4.96262996991475
 11
7.59699025154114
 21
4.96262996991475
  0
LINE
  8
1
 10
0.99699025154114
 20
8.96262996991475
 11
15.9969902515411
 21
8.96262996991475
  0
LINE
  8
1
 10
0.99699025154114
 20
0.962629969914748
 11
5.59699025154114
 21
0.962629969914748
  0
LINE
  8
1
 10
0.99699025154114
 20
-7.03737003008525
 11
10.3969902515411
 21
-7.03737003008525
  0
LINE
  8
1
 10
10.7970216912044
 20
-7.03737003008525
 11
12.3969902515411
 21
-7.03737003008525
  0
LINE
  8
1
 10
12.7969902515411
 20
-7.03737003008525
 11
16.5969902515411
 21
-7.03737003008525
  0
LINE
  8
1
 10
12.5969902515411
 20
4.96262996991475
 11
12.5969902515411
 21
-6.83737003008525
  0
LINE
  8
1
 10
9.59699025154114
 20
0.962629969914748
 11
10.5969902515411
 21
0.962629969914748
  0
POLYLINE
  8
1
 66
1
  0
VERTEX
  8
1
 10
5.59699025154114
 20
1.46262996991475
  0
VERTEX
  8
1
 10
9.59699025154114
 20
1.46262996991475
  0
VERTEX
  8
1
 10
9.59699025154114
 20
0.462629969914747
  0
VERTEX
  8
1
 10
5.59699025154114
 20
0.462629969914747
  0
VERTEX
  8
1
 10
5.59699025154114
 20
1.46262996991475
  0
SEQEND
  8
1
  0
POLYLINE
  8
1
 66
1
  0
VERTEX
  8
1
 10
7.59699025154114
 20
5.46262996991475
  0
VERTEX
  8
1
 10
11.5969902515411
 20
5.46262996991475
  0
VERTEX
  8
1
 10
11.5969902515411
 20
4.46262996991475
  0
VERTEX
  8
1
 10
7.59699025154114
 20
4.46262996991475
  0
VERTEX
  8
1
 10
7.59699025154114
 20
5.46262996991475
  0
SEQEND
  8
1
  0
LINE
  8
1
 10
11.5969902515411
 20
4.96262996991475
 11
12.5969902515411
 21
4.96262996991475
  0
CIRCLE
  8
1
 10
12.5969902515411
 20
-7.03737003008525
 40
0.2
  0
CIRCLE
  8
1
 10
10.5969902515411
 20
-7.03737003008525
 40
0.2
  0
LINE
  8
1
 10
10.5969902515411
 20
0.962629969914748
 11
10.5969902515411
 21
-6.83737003008525
  0
LINE
  8
1
  6
DOT
 10
-15.0030097484589
 20
2.96262996991475
 11
-9.40299824635052
 21
2.96262996991475
  0
LINE
  8
1
 10
-16.5030097484589
 20
2.86262996991475
 11
-16.0030097484589
 21
2.46262996991475
  0
LINE
  8
1
 10
-16.5030097484589
 20
3.06262996991475
 11
-16.0030097484589
 21
3.46262996991475
  0
SOLID
  8
1
 10
-14.5030097484589
 20
4.96262996991475
 11
-15.1124612206729
 21
4.45907371385573
 12
-14.5030097484589
 22
4.96262996991475
 13
-14.6884371725947
 23
4.19411408173913
  0
LINE
  8
1
 10
-17.0030097484589
 20
0.962629969914748
 11
-14.5030097484589
 21
4.96262996991475
  0
LINE
  8
1
 10
-16.5030097484589
 20
1.96262996991475
 11
-16.5030097484589
 21
0.962629969914748
  0
LINE
  8
1
 10
-16.5030097484589
 20
3.96262996991475
 11
-16.5030097484589
 21
4.96262996991475
  0
POLYLINE
  8
1
 66
1
  0
VERTEX
  8
1
 10
-18.0030097484589
 20
3.96262996991475
  0
VERTEX
  8
1
 10
-15.0030097484589
 20
3.96262996991475
  0
VERTEX
  8
1
 10
-15.0030097484589
 20
1.96262996991475
  0
VERTEX
  8
1
 10
-18.0030097484589
 20
1.96262996991475
  0
VERTEX
  8
1
 10
-18.0030097484589
 20
3.96262996991475
  0
SEQEND
  8
1
  0
LINE
  8
1
 10
-16.5030097484589
 20
3.36262996991475
 11
-16.5030097484589
 21
2.56262996991475
  0
LINE
  8
1
 10
-17.5030097484589
 20
2.96262996991475
 11
-16.5030097484589
 21
2.96262996991475
  0
LINE
  8
1
  6
DOT
 10
-11.0030097484589
 20
6.96262996991475
 11
-7.40299712964097
 21
6.96262996991475
  0
LINE
  8
1
 10
-12.5030097484589
 20
6.86262996991475
 11
-12.0030097484589
 21
6.46262996991475
  0
LINE
  8
1
 10
-12.5030097484589
 20
7.06262996991475
 11
-12.0030097484589
 21
7.46262996991475
  0
SOLID
  8
1
 10
-10.5030097484589
 20
8.96262996991475
 11
-11.1124612206729
 21
8.45907371385572
 12
-10.5030097484589
 22
8.96262996991475
 13
-10.6884371725947
 23
8.19411408173912
  0
LINE
  8
1
 10
-13.0030097484589
 20
4.96262996991475
 11
-10.5030097484589
 21
8.96262996991475
  0
LINE
  8
1
 10
-12.5030097484589
 20
5.96262996991475
 11
-12.5030097484589
 21
4.96262996991475
  0
LINE
  8
1
 10
-12.5030097484589
 20
7.96262996991475
 11
-12.5030097484589
 21
8.96262996991475
  0
POLYLINE
  8
1
 66
1
  0
VERTEX
  8
1
 10
-14.0030097484589
 20
7.96262996991475
  0
VERTEX
  8
1
 10
-11.0030097484589
 20
7.96262996991475
  0
VERTEX
  8
1
 10
-11.0030097484589
 20
5.96262996991475
  0
VERTEX
  8
1
 10
-14.0030097484589
 20
5.96262996991475
  0
VERTEX
  8
1
 10
-14.0030097484589
 20
7.96262996991475
  0
SEQEND
  8
1
  0
LINE
  8
1
 10
-12.5030097484589
 20
7.36262996991475
 11
-12.5030097484589
 21
6.56262996991475
  0
LINE
  8
1
 10
-13.5030097484589
 20
6.96262996991475
 11
-12.5030097484589
 21
6.96262996991475
  0
LINE
  8
1
 10
-7.00300974845886
 20
4.96262996991475
 11
-5.00300974845886
 21
4.96262996991475
  0
LINE
  8
1
 10
-7.00300974845886
 20
8.96262996991475
 11
-5.00300974845886
 21
8.96262996991475
  0
LINE
  8
1
 10
-8.00300974845886
 20
8.46262996991475
 11
-7.00300974845886
 21
5.96262996991475
  0
LINE
  8
1
 10
-8.00300974845886
 20
5.96262996991475
 11
-6.00300974845886
 21
5.96262996991475
  0
LINE
  8
1
 10
-7.00300974845886
 20
5.96262996991475
 11
-7.00300974845886
 21
4.96262996991475
  0
LINE
  8
1
 10
-7.00300974845886
 20
7.96262996991475
 11
-7.00300974845886
 21
8.96262996991475
  0
POLYLINE
  8
1
 66
1
  0
VERTEX
  8
1
 10
-9.00300974845886
 20
4.96262996991475
  0
VERTEX
  8
1
 10
-9.00300974845886
 20
8.96262996991474
  0
VERTEX
  8
1
 10
-5.00300974845886
 20
8.96262996991474
  0
SEQEND
  8
1
  0
LINE
  8
1
 10
-10.0030097484589
 20
4.46262996991475
 11
-9.00300974845886
 21
1.96262996991475
  0
LINE
  8
1
 10
-10.0030097484589
 20
1.96262996991475
 11
-8.00300974845886
 21
1.96262996991475
  0
LINE
  8
1
 10
-9.00300974845886
 20
1.96262996991475
 11
-9.00300974845886
 21
0.962629969914748
  0
LINE
  8
1
 10
-9.00300974845886
 20
3.96262996991475
 11
-9.00300974845886
 21
4.96262996991475
  0
LINE
  8
1
 10
-9.00300974845886
 20
0.962629969914748
 11
-5.00300974845886
 21
0.962629969914748
  0
ENDBLK
  8
0
  0
ENDSEC
  0
SECTION
  2
ENTITIES
  0
INSERT
  8
1
  2
B2107_00992013
 10
26.5673449357351
 20
11.9626297314962
  0
ENDSEC
  0
EOF
