  0
SECTION
  2
HEADER
  9
$LIMMIN
 10
0
 20
0
  9
$LIMMAX
 10
52.5
 20
74.25
  9
$EXTMIN
 10
0
 20
40
  9
$EXTMAX
 10
0
 20
30
  0
ENDSEC
  0
SECTION
  2
TABLES
  0
TABLE
  2
LTYPE
 70
9
  0
LTYPE
  2
CONTINUOUS
 70
64
  3
Solid line
 72
65
 73
0
 40
0
  0
LTYPE
  2
DASHED
 70
64
  3
__ __ __ __ __ __ __ __ __
 72
65
 73
2
 40
0.75
 49
0.5
 49
-0.25
  0
LTYPE
  2
DOT
 70
64
  3
...........................
 72
65
 73
2
 40
0.25
 49
0
 49
-0.25
  0
LTYPE
  2
DASHDOT
 70
64
  3
__ . __ . __ . __ . __ . __ . 
 72
65
 73
4
 40
1
 49
0.5
 49
-0.25
 49
0
 49
-0.25
  0
ENDTAB
  0
TABLE
  2
LAYER
 70
10
  0
LAYER
  2
1
 70
0
 62
7
  6
CONTINUOUS
  0
LAYER
  2
CONNECTIONS
 70
0
 62
-7
  6
CONTINUOUS
  0
ENDTAB
  0
ENDSEC
  0
SECTION
  2
BLOCKS
  0
BLOCK
  8
0
  2
TRICON
 70
0
 10
0
 20
0
  0
POLYLINE
  8
1
 70
1
 66
1
 40
0.5
 41
0.5
  0
VERTEX
  8
1
 10
-0.25
 20
0
 42
1
  0
VERTEX
  8
1
 10
0.25
 20
0
 42
1
  0
SEQEND
  8
1
  0
ENDBLK
  8
0
  0
BLOCK
  8
0
  2
TRICONSMALL
 70
0
 10
0
 20
0
  0
POLYLINE
  8
1
 70
1
 66
1
 40
0.25
 41
0.25
  0
VERTEX
  8
1
 10
-0.125
 20
0
 42
1
  0
VERTEX
  8
1
 10
0.125
 20
0
 42
1
  0
SEQEND
  8
1
  0
ENDBLK
  8
0
  0
BLOCK
  8
0
  2
TRICONCIRCLE
 70
0
 10
0
 20
0
  0
CIRCLE
  8
1
 10
0
 20
0
 40
0.5
  0
ENDBLK
  8
0
  0
BLOCK
  8
0
  2
LCBP0
 70
0
 10
0
 20
0
  0
LINE
  8
1
 10
0
 20
-0.46875
 11
0
 21
0.46875
  0
ENDBLK
  8
0
  0
BLOCK
  8
0
  2
LCBP1
 70
0
 10
0
 20
0
  0
LINE
  8
1
 10
0
 20
-0.625
 11
0
 21
0.625
  0
ENDBLK
  8
0
  0
BLOCK
  8
0
  2
LCBP2
 70
0
 10
0
 20
0
  0
LINE
  8
1
 10
0
 20
-0.9375
 11
0
 21
0.9375
  0
ENDBLK
  8
0
  0
BLOCK
  8
0
  2
LCA1
 70
0
 10
0
 20
0
  0
SOLID
  8
1
 62
7 
 10
0
 20
0
 11
-1.4
 21
-0.275
 12
-1.4
 22
0.275
 13
-1.4
 23
0.275
  0
ENDBLK
  8
0
  0
BLOCK
  8
0
  2
LCA2
 70
0
 10
0
 20
0
  0
SOLID
  8
1
 62
7 
 10
0
 20
0
 11
-1.65
 21
-0.525
 12
-1.65
 22
0.525
 13
-1.65
 23
0.525
  0
ENDBLK
  8
0
  0
BLOCK
  8
0
  2
LCA3
 70
0
 10
0
 20
0
  0
SOLID
  8
1
 62
7 
 10
0
 20
0
 11
-2.15
 21
-1.15
 12
-2.15
 22
1.15
 13
-2.15
 23
1.15
  0
ENDBLK
  8
0
  0
BLOCK
  8
0
  2
LCA1R
 70
0
 10
0
 20
0
  0
SOLID
  8
1
 62
7 
 10
0
 20
0
 11
1.4
 21
-0.275
 12
1.4
 22
0.275
 13
1.4
 23
0.275
  0
ENDBLK
  8
0
  0
BLOCK
  8
0
  2
LCA2R
 70
0
 10
0
 20
0
  0
SOLID
  8
1
 62
7 
 10
0
 20
0
 11
1.65
 21
-0.525
 12
1.65
 22
0.525
 13
1.65
 23
0.525
  0
ENDBLK
  8
0
  0
BLOCK
  8
0
  2
LCA3R
 70
0
 10
0
 20
0
  0
SOLID
  8
1
 62
7 
 10
0
 20
0
 11
2.15
 21
-1.15
 12
2.15
 22
1.15
 13
2.15
 23
1.15
  0
ENDBLK
  8
0
  0
BLOCK
  8
0
  2
B3759_00992001
 70
0
 10
0
 20
0
  0
POLYLINE
  8
1
 66
1
  0
VERTEX
  8
1
 10
-16
 20
15
  0
VERTEX
  8
1
 10
16
 20
15
  0
VERTEX
  8
1
 10
16
 20
-15
  0
VERTEX
  8
1
 10
-16
 20
-15
  0
VERTEX
  8
1
 10
-16
 20
15
  0
SEQEND
  8
1
  0
LINE
  8
1
 10
16
 20
-1
 11
20
 21
-1
  0
LINE
  8
1
 10
-20
 20
-1
 11
-16
 21
-1
  0
TEXT
  8
1
 40
2.475
 41
0.75
  1
1
  7
STANDARD
 10
-20.7553202542184
 20
-0.165770046973162
  0
TEXT
  8
1
 40
2.475
 41
0.75
  1
4
  7
STANDARD
 72
2
 10
20.6594403054699
 20
-0.0844120966287221
 11
20.6594403054699
 21
-0.0844120966287221
  0
LINE
  8
1
 10
8
 20
-1
 11
16
 21
-1
  0
LINE
  8
1
 10
-16
 20
-1
 11
0
 21
-1
  0
LINE
  8
1
 10
7
 20
-11
 11
12
 21
-11
  0
LINE
  8
1
 10
-8
 20
-11
 11
-2
 21
-11
  0
LINE
  8
1
 10
-8
 20
-1
 11
-8
 21
-11
  0
POLYLINE
  8
1
 70
1
 66
1
 40
0.5
 41
0.5
  0
VERTEX
  8
1
 10
-8.25
 20
-1
 42
1
  0
VERTEX
  8
1
 10
-7.75
 20
-1
 42
1
  0
SEQEND
  8
1
  0
LINE
  8
1
 10
12
 20
-1
 11
12
 21
-11
  0
POLYLINE
  8
1
 70
1
 66
1
 40
0.5
 41
0.5
  0
VERTEX
  8
1
 10
11.75
 20
-1
 42
1
  0
VERTEX
  8
1
 10
12.25
 20
-1
 42
1
  0
SEQEND
  8
1
  0
LINE
  8
1
 10
-6.23223304703364
 20
5.23223304703363
 11
-9.76776695296638
 21
8.76776695296637
  0
INSERT
  8
1
  2
LCA1
 10
-9.76776695296638
 20
8.76776695296637
 50
135
  0
CIRCLE
  8
1
 10
-8
 20
7
 40
4
  0
LINE
  8
1
 10
-8
 20
3
 11
-8
 21
-1
  0
POLYLINE
  8
1
 66
1
  0
VERTEX
  8
1
 10
2
 20
-13
  0
VERTEX
  8
1
 10
4
 20
-11
  0
VERTEX
  8
1
 10
2
 20
-9
  0
SEQEND
  8
1
  0
CIRCLE
  8
1
 10
2.46666666666667
 20
-11
 40
1
  0
LINE
  8
1
 10
1.5
 20
-11
 11
-2
 21
-11
  0
LINE
  8
1
 10
4
 20
-11
 11
7
 21
-11
  0
LINE
  8
1
 10
-2.44259788264229
 20
6.27036371433004
 11
6.44287357865983
 21
8.72971259368521
  0
INSERT
  8
1
  2
LCA1
 10
6.44287357865983
 20
8.72971259368521
 50
15.4711922908485
  0
POLYLINE
  8
1
 66
1
  0
VERTEX
  8
1
 10
2.00011108809962
 20
5.0000231433541
  0
VERTEX
  8
1
 10
4.00011108809963
 20
5.4166898100208
  0
VERTEX
  8
1
 10
0.000111088099624605
 20
6.2500231433541
  0
VERTEX
  8
1
 10
4.00011108809963
 20
7.08335647668745
  0
VERTEX
  8
1
 10
0.000111088099624605
 20
7.9166898100208
  0
VERTEX
  8
1
 10
4.00011108809963
 20
8.7500231433541
  0
VERTEX
  8
1
 10
0.000111088099624605
 20
9.5833564766874
  0
VERTEX
  8
1
 10
2.00011108809962
 20
10.0000231433541
  0
SEQEND
  8
1
  0
POLYLINE
  8
1
 66
1
  0
VERTEX
  8
1
 10
0
 20
4
  0
VERTEX
  8
1
 10
-2
 20
3
  0
VERTEX
  8
1
 10
0
 20
2
  0
SEQEND
  8
1
  0
POLYLINE
  8
1
  6
DOT
 66
1
  0
VERTEX
  8
1
 10
2
 20
-3
  0
VERTEX
  8
1
 10
2
 20
-7
  0
VERTEX
  8
1
 10
10
 20
-7
  0
VERTEX
  8
1
 10
10
 20
-3
  0
VERTEX
  8
1
 10
8
 20
-1
  0
SEQEND
  8
1
  0
POLYLINE
  8
1
 66
1
  0
VERTEX
  8
1
 10
0
 20
-3
  0
VERTEX
  8
1
 10
8
 20
-3
  0
VERTEX
  8
1
 10
8
 20
5
  0
VERTEX
  8
1
 10
0
 20
5
  0
VERTEX
  8
1
 10
0
 20
-3
  0
SEQEND
  8
1
  0
LINE
  8
1
 10
8
 20
-1
 11
0
 21
-1
  0
INSERT
  8
1
  2
LCA1
 10
0
 20
-1
 50
-180
  0
INSERT
  8
1
  2
LCA1R
 10
8
 20
-1
 50
-180
  0
CIRCLE
  8
CONNECTIONS
 10
20
 20
-1
 40
0
  0
CIRCLE
  8
CONNECTIONS
 10
-20
 20
-1
 40
0
  0
ENDBLK
  8
0
  0
ENDSEC
  0
SECTION
  2
ENTITIES
  0
INSERT
  8
1
  2
B3759_00992001
 10
20
 20
15
  0
ENDSEC
  0
EOF
