  0
SECTION
  2
HEADER
  9
$LIMMIN
 10
0
 20
0
  9
$LIMMAX
 10
52.5
 20
74.25
  9
$EXTMIN
 10
0
 20
53.4228849411011
  9
$EXTMAX
 10
0
 20
19.9999995231628
  0
ENDSEC
  0
SECTION
  2
TABLES
  0
TABLE
  2
LTYPE
 70
9
  0
LTYPE
  2
CONTINUOUS
 70
64
  3
Solid line
 72
65
 73
0
 40
0
  0
LTYPE
  2
DASHED
 70
64
  3
__ __ __ __ __ __ __ __ __
 72
65
 73
2
 40
0.75
 49
0.5
 49
-0.25
  0
LTYPE
  2
DOT
 70
64
  3
...........................
 72
65
 73
2
 40
0.25
 49
0
 49
-0.25
  0
LTYPE
  2
DASHDOT
 70
64
  3
__ . __ . __ . __ . __ . __ . 
 72
65
 73
4
 40
1
 49
0.5
 49
-0.25
 49
0
 49
-0.25
  0
ENDTAB
  0
TABLE
  2
LAYER
 70
10
  0
LAYER
  2
1
 70
0
 62
7
  6
CONTINUOUS
  0
LAYER
  2
CONNECTIONS
 70
0
 62
-7
  6
CONTINUOUS
  0
ENDTAB
  0
ENDSEC
  0
SECTION
  2
BLOCKS
  0
BLOCK
  8
0
  2
TRICON
 70
0
 10
0
 20
0
  0
POLYLINE
  8
1
 70
1
 66
1
 40
0.5
 41
0.5
  0
VERTEX
  8
1
 10
-0.25
 20
0
 42
1
  0
VERTEX
  8
1
 10
0.25
 20
0
 42
1
  0
SEQEND
  8
1
  0
ENDBLK
  8
0
  0
BLOCK
  8
0
  2
TRICONSMALL
 70
0
 10
0
 20
0
  0
POLYLINE
  8
1
 70
1
 66
1
 40
0.25
 41
0.25
  0
VERTEX
  8
1
 10
-0.125
 20
0
 42
1
  0
VERTEX
  8
1
 10
0.125
 20
0
 42
1
  0
SEQEND
  8
1
  0
ENDBLK
  8
0
  0
BLOCK
  8
0
  2
TRICONCIRCLE
 70
0
 10
0
 20
0
  0
CIRCLE
  8
1
 10
0
 20
0
 40
0.5
  0
ENDBLK
  8
0
  0
BLOCK
  8
0
  2
LCBP0
 70
0
 10
0
 20
0
  0
LINE
  8
1
 10
0
 20
-0.46875
 11
0
 21
0.46875
  0
ENDBLK
  8
0
  0
BLOCK
  8
0
  2
LCBP1
 70
0
 10
0
 20
0
  0
LINE
  8
1
 10
0
 20
-0.625
 11
0
 21
0.625
  0
ENDBLK
  8
0
  0
BLOCK
  8
0
  2
LCBP2
 70
0
 10
0
 20
0
  0
LINE
  8
1
 10
0
 20
-0.9375
 11
0
 21
0.9375
  0
ENDBLK
  8
0
  0
BLOCK
  8
0
  2
LCA1
 70
0
 10
0
 20
0
  0
SOLID
  8
1
 62
7 
 10
0
 20
0
 11
-1.4
 21
-0.275
 12
-1.4
 22
0.275
 13
-1.4
 23
0.275
  0
ENDBLK
  8
0
  0
BLOCK
  8
0
  2
LCA2
 70
0
 10
0
 20
0
  0
SOLID
  8
1
 62
7 
 10
0
 20
0
 11
-1.65
 21
-0.525
 12
-1.65
 22
0.525
 13
-1.65
 23
0.525
  0
ENDBLK
  8
0
  0
BLOCK
  8
0
  2
LCA3
 70
0
 10
0
 20
0
  0
SOLID
  8
1
 62
7 
 10
0
 20
0
 11
-2.15
 21
-1.15
 12
-2.15
 22
1.15
 13
-2.15
 23
1.15
  0
ENDBLK
  8
0
  0
BLOCK
  8
0
  2
LCA1R
 70
0
 10
0
 20
0
  0
SOLID
  8
1
 62
7 
 10
0
 20
0
 11
1.4
 21
-0.275
 12
1.4
 22
0.275
 13
1.4
 23
0.275
  0
ENDBLK
  8
0
  0
BLOCK
  8
0
  2
LCA2R
 70
0
 10
0
 20
0
  0
SOLID
  8
1
 62
7 
 10
0
 20
0
 11
1.65
 21
-0.525
 12
1.65
 22
0.525
 13
1.65
 23
0.525
  0
ENDBLK
  8
0
  0
BLOCK
  8
0
  2
LCA3R
 70
0
 10
0
 20
0
  0
SOLID
  8
1
 62
7 
 10
0
 20
0
 11
2.15
 21
-1.15
 12
2.15
 22
1.15
 13
2.15
 23
1.15
  0
ENDBLK
  8
0
  0
BLOCK
  8
0
  2
B4314_00991966
 70
0
 10
0
 20
0
  0
LINE
  8
1
 10
-0.458912054697672
 20
-5
 11
1.54108794530233
 21
-5
  0
LINE
  8
1
 10
-0.458912054697672
 20
-1
 11
1.54108794530233
 21
-1
  0
LINE
  8
1
 10
-0.458912054697672
 20
3
 11
1.54108794530233
 21
3
  0
LINE
  8
1
 10
-0.458912054697672
 20
7
 11
1.54108794530233
 21
7
  0
POLYLINE
  8
1
 66
1
  0
VERTEX
  8
1
 10
-14.4589120546977
 20
8
  0
VERTEX
  8
1
 10
-0.458912054697672
 20
8
  0
VERTEX
  8
1
 10
-0.458912054697672
 20
-6
  0
VERTEX
  8
1
 10
-14.4589120546977
 20
-6
  0
VERTEX
  8
1
 10
-14.4589120546977
 20
8
  0
SEQEND
  8
1
  0
LINE
  8
1
 10
1.54108794530233
 20
-5
 11
2.54108794530233
 21
-5
  0
SOLID
  8
1
 10
2.54108794530233
 20
-4.75
 11
4.04108794530233
 21
-4.75
 12
2.54108794530233
 22
-5.25
 13
4.04108794530233
 23
-5.25
  0
SOLID
  8
1
 10
4.04108794530233
 20
-5.25
 11
2.54108794530233
 21
-5.25
 12
2.54108794530233
 22
-5.25
 13
2.54108794530233
 23
-4.75
  0
LINE
  8
1
 10
1.54108794530233
 20
-1
 11
2.54108794530233
 21
-1
  0
SOLID
  8
1
 10
2.54108794530233
 20
-0.75
 11
4.04108794530233
 21
-0.75
 12
2.54108794530233
 22
-1.25
 13
4.04108794530233
 23
-1.25
  0
SOLID
  8
1
 10
4.04108794530233
 20
-1.25
 11
2.54108794530233
 21
-1.25
 12
2.54108794530233
 22
-1.25
 13
2.54108794530233
 23
-0.75
  0
SOLID
  8
1
 10
2.54108794530233
 20
3.25
 11
4.04108794530233
 21
3.25
 12
2.54108794530233
 22
2.75
 13
4.04108794530233
 23
2.75
  0
SOLID
  8
1
 10
4.04108794530233
 20
2.75
 11
2.54108794530233
 21
2.75
 12
2.54108794530233
 22
2.75
 13
2.54108794530233
 23
3.25
  0
LINE
  8
1
 10
1.54108794530233
 20
3
 11
2.54108794530233
 21
3
  0
LINE
  8
1
 10
1.54108794530233
 20
7
 11
2.54108794530233
 21
7
  0
SOLID
  8
1
 10
2.54108794530233
 20
7.25
 11
4.04108794530233
 21
7.25
 12
2.54108794530233
 22
6.75
 13
4.04108794530233
 23
6.75
  0
SOLID
  8
1
 10
4.04108794530233
 20
6.75
 11
2.54108794530233
 21
6.75
 12
2.54108794530233
 22
6.75
 13
2.54108794530233
 23
7.25
  0
LINE
  8
1
 10
4.54108794530233
 20
7
 11
5.54108794530233
 21
7
  0
ARC
  8
1
 10
3.54108794530233
 20
7
 40
1
 50
270
 51
90
  0
LINE
  8
1
 10
4.54108794530233
 20
-5
 11
5.54108794530233
 21
-5
  0
ARC
  8
1
 10
3.54108794530233
 20
-5
 40
1
 50
270
 51
90
  0
LINE
  8
1
 10
4.54108794530233
 20
-1
 11
5.54108794530233
 21
-1
  0
ARC
  8
1
 10
3.54108794530233
 20
-1
 40
1
 50
270
 51
90
  0
LINE
  8
1
 10
4.54108794530233
 20
3
 11
5.54108794530233
 21
3
  0
ARC
  8
1
 10
3.54108794530233
 20
3
 40
1
 50
270
 51
90
  0
ARC
  8
1
 10
-16.4589120546977
 20
1
 40
1
 50
270
 51
90
  0
LINE
  8
1
 10
-15.4589120546977
 20
1
 11
-14.4589120546977
 21
1
  0
TEXT
  8
1
 40
1.8
 41
0.75
  1
R
  7
STANDARD
 72
1
 10
11.5410879453023
 20
-0.0999999999999986
 11
11.5410879453023
 21
-0.0999999999999986
  0
TEXT
  8
1
 40
1.125
 41
0.75
  1
L
  7
STANDARD
 72
1
 10
13.2545539538066
 20
-0.094075361887614
 11
13.2545539538066
 21
-0.094075361887614
  0
TEXT
  8
1
 40
1.125
 41
0.75
  1
L
  7
STANDARD
 72
1
 10
13.7545539538066
 20
3.90592463811239
 11
13.7545539538066
 21
3.90592463811239
  0
TEXT
  8
1
 40
1.8
 41
0.75
  1
R
  7
STANDARD
 72
1
 10
12.0410879453023
 20
3.9
 11
12.0410879453023
 21
3.9
  0
LINE
  8
1
 10
14.7411193849656
 20
-5
 11
16.3410879453023
 21
-5
  0
LINE
  8
1
 10
16.7410879453023
 20
-5
 11
18.5410879453023
 21
-5
  0
LINE
  8
1
 10
5.54108794530233
 20
-5
 11
14.3410879453023
 21
-5
  0
CIRCLE
  8
1
 10
16.5410879453023
 20
-5
 40
0.2
  0
CIRCLE
  8
1
 10
14.5410879453023
 20
-5
 40
0.2
  0
LINE
  8
1
 10
5.54108794530233
 20
7
 11
18.5410879453023
 21
7
  0
LINE
  8
1
 10
14.5410879453023
 20
3
 11
16.5410879453023
 21
3
  0
LINE
  8
1
 10
5.54108794530233
 20
3
 11
8.54108794530233
 21
3
  0
LINE
  8
1
 10
10.5410879453023
 20
3
 11
8.54108794530233
 21
3
  0
POLYLINE
  8
1
 66
1
  0
VERTEX
  8
1
 10
10.5410879453023
 20
3.5
  0
VERTEX
  8
1
 10
14.5410879453023
 20
3.5
  0
VERTEX
  8
1
 10
14.5410879453023
 20
2.5
  0
VERTEX
  8
1
 10
10.5410879453023
 20
2.5
  0
VERTEX
  8
1
 10
10.5410879453023
 20
3.5
  0
SEQEND
  8
1
  0
LINE
  8
1
 10
16.5410879453023
 20
-4.8
 11
16.5410879453023
 21
3
  0
LINE
  8
1
 10
14.5410879453023
 20
-4.8
 11
14.5410879453023
 21
-1
  0
LINE
  8
1
 10
5.54108794530233
 20
-1
 11
7.54108794530233
 21
-1
  0
LINE
  8
1
 10
13.5410879453023
 20
-1
 11
14.5410879453023
 21
-1
  0
LINE
  8
1
 10
9.54108794530233
 20
-1
 11
7.54108794530233
 21
-1
  0
POLYLINE
  8
1
 66
1
  0
VERTEX
  8
1
 10
9.54108794530233
 20
-0.5
  0
VERTEX
  8
1
 10
13.5410879453023
 20
-0.5
  0
VERTEX
  8
1
 10
13.5410879453023
 20
-1.5
  0
VERTEX
  8
1
 10
9.54108794530233
 20
-1.5
  0
VERTEX
  8
1
 10
9.54108794530233
 20
-0.5
  0
SEQEND
  8
1
  0
LINE
  8
1
  6
DOT
 10
-6.20891205469767
 20
5
 11
-3.05892011262648
 21
5
  0
LINE
  8
1
 10
-7.70891205469767
 20
4.9
 11
-7.20891205469767
 21
4.5
  0
LINE
  8
1
 10
-7.70891205469767
 20
5.1
 11
-7.20891205469767
 21
5.5
  0
SOLID
  8
1
 10
-5.70891205469767
 20
7
 11
-6.31836352691168
 21
6.49644374394097
 12
-5.70891205469767
 22
7
 13
-5.89433947883347
 23
6.23148411182437
  0
LINE
  8
1
 10
-8.20891205469767
 20
3
 11
-5.70891205469767
 21
7
  0
LINE
  8
1
 10
-7.70891205469767
 20
4
 11
-7.70891205469767
 21
3
  0
LINE
  8
1
 10
-7.70891205469767
 20
6
 11
-7.70891205469767
 21
7
  0
POLYLINE
  8
1
 66
1
  0
VERTEX
  8
1
 10
-9.20891205469767
 20
6
  0
VERTEX
  8
1
 10
-6.20891205469767
 20
6
  0
VERTEX
  8
1
 10
-6.20891205469767
 20
4
  0
VERTEX
  8
1
 10
-9.20891205469767
 20
4
  0
VERTEX
  8
1
 10
-9.20891205469767
 20
6
  0
SEQEND
  8
1
  0
LINE
  8
1
 10
-7.70891205469767
 20
5.4
 11
-7.70891205469767
 21
4.6
  0
LINE
  8
1
 10
-8.70891205469767
 20
5
 11
-7.70891205469767
 21
5
  0
LINE
  8
1
  6
DOT
 10
-8.45891205469767
 20
-1
 11
-5.0589120547064
 21
-1
  0
LINE
  8
1
 10
-9.95891205469767
 20
-1.1
 11
-9.45891205469767
 21
-1.5
  0
LINE
  8
1
 10
-9.95891205469767
 20
-0.9
 11
-9.45891205469767
 21
-0.5
  0
SOLID
  8
1
 10
-7.95891205469767
 20
1
 11
-8.56836352691168
 21
0.496443743940967
 12
-7.95891205469767
 22
1
 13
-8.14433947883347
 23
0.231484111824367
  0
LINE
  8
1
 10
-10.4589120546977
 20
-3
 11
-7.95891205469767
 21
1
  0
LINE
  8
1
 10
-9.95891205469767
 20
-2
 11
-9.95891205469767
 21
-3
  0
LINE
  8
1
 10
-9.95891205469767
 20
0
 11
-9.95891205469767
 21
1
  0
POLYLINE
  8
1
 66
1
  0
VERTEX
  8
1
 10
-11.4589120546977
 20
0
  0
VERTEX
  8
1
 10
-8.45891205469767
 20
0
  0
VERTEX
  8
1
 10
-8.45891205469767
 20
-2
  0
VERTEX
  8
1
 10
-11.4589120546977
 20
-2
  0
VERTEX
  8
1
 10
-11.4589120546977
 20
0
  0
SEQEND
  8
1
  0
LINE
  8
1
 10
-9.95891205469767
 20
-0.6
 11
-9.95891205469767
 21
-1.4
  0
LINE
  8
1
 10
-10.9589120546977
 20
-1
 11
-9.95891205469767
 21
-1
  0
TEXT
  8
1
 40
1.8
 41
0.75
  1
PNP
  7
STANDARD
 72
1
 73
3
 10
-7.45891205469767
 20
-6.99947948455811
 11
-7.45891205469767
 21
-6.99947948455811
  0
TEXT
  8
1
 40
1.8
 41
0.75
  1
SMH-..
  7
STANDARD
 72
2
 10
-16.8865931828817
 20
-0.325260257720947
 11
-16.8865931828817
 21
-0.325260257720947
  0
TEXT
  8
1
 40
1.8
 41
0.75
  1
+24V
  7
STANDARD
 10
19.0241791407267
 20
6.17473974227905
  0
TEXT
  8
1
 40
1.8
 41
0.75
  1
0V
  7
STANDARD
 10
18.944155216217
 20
-6.1
  0
TEXT
  8
1
 40
1.8
 41
0.75
  1
BU
  7
STANDARD
 10
4.54108794530233
 20
-4.55052051544189
  0
TEXT
  8
1
 40
1.8
 41
0.75
  1
WH
  7
STANDARD
 10
4.54108794530233
 20
-0.550520515441894
  0
TEXT
  8
1
 40
1.8
 41
0.75
  1
BK
  7
STANDARD
 10
4.54108794530233
 20
3.44947948455811
  0
TEXT
  8
1
 40
1.8
 41
0.75
  1
BN
  7
STANDARD
 10
4.54108794530233
 20
7.44947948455811
  0
TEXT
  8
1
 40
1.8
 41
0.75
  1
3
  7
STANDARD
 10
-0.458912054697672
 20
-4.55052051544189
  0
TEXT
  8
1
 40
1.8
 41
0.75
  1
2
  7
STANDARD
 10
-0.458912054697672
 20
-0.550520515441894
  0
TEXT
  8
1
 40
1.8
 41
0.75
  1
4
  7
STANDARD
 10
-0.458912054697672
 20
3.44947948455811
  0
TEXT
  8
1
 40
1.8
 41
0.75
  1
1
  7
STANDARD
 10
-0.458912054697672
 20
7.44947948455811
  0
LINE
  8
1
 10
-2.45891205469767
 20
3
 11
-0.458912054697672
 21
3
  0
LINE
  8
1
 10
-2.45891205469767
 20
7
 11
-0.458912054697672
 21
7
  0
LINE
  8
1
 10
-3.45891205469767
 20
6.5
 11
-2.45891205469767
 21
4
  0
LINE
  8
1
 10
-3.45891205469767
 20
4
 11
-1.45891205469767
 21
4
  0
LINE
  8
1
 10
-2.45891205469767
 20
4
 11
-2.45891205469767
 21
3
  0
LINE
  8
1
 10
-2.45891205469767
 20
6
 11
-2.45891205469767
 21
7
  0
POLYLINE
  8
1
 66
1
  0
VERTEX
  8
1
 10
-4.45891205469767
 20
0.5
  0
VERTEX
  8
1
 10
-4.45891205469767
 20
7
  0
VERTEX
  8
1
 10
-2.45891205469767
 20
7
  0
SEQEND
  8
1
  0
POLYLINE
  8
1
 66
1
  0
VERTEX
  8
1
 10
-0.458912054697672
 20
-1
  0
VERTEX
  8
1
 10
-2.45891205469767
 20
-1
  0
VERTEX
  8
1
 10
-2.45891205469767
 20
-3
  0
VERTEX
  8
1
 10
-4.45891205469767
 20
-3
  0
VERTEX
  8
1
 10
-4.45891205469767
 20
-2
  0
SEQEND
  8
1
  0
LINE
  8
1
 10
-5.45891205469767
 20
-2
 11
-3.45891205469767
 21
-2
  0
LINE
  8
1
 10
-5.45891205469767
 20
0.5
 11
-4.45891205469767
 21
-2
  0
ENDBLK
  8
0
  0
ENDSEC
  0
SECTION
  2
ENTITIES
  0
INSERT
  8
1
  2
B4314_00991966
 10
26.7114426294963
 20
9.99999976158142
  0
ENDSEC
  0
EOF
