  0
SECTION
  2
HEADER
  9
$LIMMIN
 10
0
 20
0
  9
$LIMMAX
 10
52.5
 20
74.25
  9
$EXTMIN
 10
0
 20
48.7497098445892
  9
$EXTMAX
 10
0
 20
19.9999995231628
  0
ENDSEC
  0
SECTION
  2
TABLES
  0
TABLE
  2
LTYPE
 70
9
  0
LTYPE
  2
CONTINUOUS
 70
64
  3
Solid line
 72
65
 73
0
 40
0
  0
LTYPE
  2
DASHED
 70
64
  3
__ __ __ __ __ __ __ __ __
 72
65
 73
2
 40
0.75
 49
0.5
 49
-0.25
  0
LTYPE
  2
DOT
 70
64
  3
...........................
 72
65
 73
2
 40
0.25
 49
0
 49
-0.25
  0
LTYPE
  2
DASHDOT
 70
64
  3
__ . __ . __ . __ . __ . __ . 
 72
65
 73
4
 40
1
 49
0.5
 49
-0.25
 49
0
 49
-0.25
  0
ENDTAB
  0
TABLE
  2
LAYER
 70
10
  0
LAYER
  2
1
 70
0
 62
7
  6
CONTINUOUS
  0
LAYER
  2
CONNECTIONS
 70
0
 62
-7
  6
CONTINUOUS
  0
ENDTAB
  0
ENDSEC
  0
SECTION
  2
BLOCKS
  0
BLOCK
  8
0
  2
TRICON
 70
0
 10
0
 20
0
  0
POLYLINE
  8
1
 70
1
 66
1
 40
0.5
 41
0.5
  0
VERTEX
  8
1
 10
-0.25
 20
0
 42
1
  0
VERTEX
  8
1
 10
0.25
 20
0
 42
1
  0
SEQEND
  8
1
  0
ENDBLK
  8
0
  0
BLOCK
  8
0
  2
TRICONSMALL
 70
0
 10
0
 20
0
  0
POLYLINE
  8
1
 70
1
 66
1
 40
0.25
 41
0.25
  0
VERTEX
  8
1
 10
-0.125
 20
0
 42
1
  0
VERTEX
  8
1
 10
0.125
 20
0
 42
1
  0
SEQEND
  8
1
  0
ENDBLK
  8
0
  0
BLOCK
  8
0
  2
TRICONCIRCLE
 70
0
 10
0
 20
0
  0
CIRCLE
  8
1
 10
0
 20
0
 40
0.5
  0
ENDBLK
  8
0
  0
BLOCK
  8
0
  2
LCBP0
 70
0
 10
0
 20
0
  0
LINE
  8
1
 10
0
 20
-0.46875
 11
0
 21
0.46875
  0
ENDBLK
  8
0
  0
BLOCK
  8
0
  2
LCBP1
 70
0
 10
0
 20
0
  0
LINE
  8
1
 10
0
 20
-0.625
 11
0
 21
0.625
  0
ENDBLK
  8
0
  0
BLOCK
  8
0
  2
LCBP2
 70
0
 10
0
 20
0
  0
LINE
  8
1
 10
0
 20
-0.9375
 11
0
 21
0.9375
  0
ENDBLK
  8
0
  0
BLOCK
  8
0
  2
LCA1
 70
0
 10
0
 20
0
  0
SOLID
  8
1
 62
7 
 10
0
 20
0
 11
-1.4
 21
-0.275
 12
-1.4
 22
0.275
 13
-1.4
 23
0.275
  0
ENDBLK
  8
0
  0
BLOCK
  8
0
  2
LCA2
 70
0
 10
0
 20
0
  0
SOLID
  8
1
 62
7 
 10
0
 20
0
 11
-1.65
 21
-0.525
 12
-1.65
 22
0.525
 13
-1.65
 23
0.525
  0
ENDBLK
  8
0
  0
BLOCK
  8
0
  2
LCA3
 70
0
 10
0
 20
0
  0
SOLID
  8
1
 62
7 
 10
0
 20
0
 11
-2.15
 21
-1.15
 12
-2.15
 22
1.15
 13
-2.15
 23
1.15
  0
ENDBLK
  8
0
  0
BLOCK
  8
0
  2
LCA1R
 70
0
 10
0
 20
0
  0
SOLID
  8
1
 62
7 
 10
0
 20
0
 11
1.4
 21
-0.275
 12
1.4
 22
0.275
 13
1.4
 23
0.275
  0
ENDBLK
  8
0
  0
BLOCK
  8
0
  2
LCA2R
 70
0
 10
0
 20
0
  0
SOLID
  8
1
 62
7 
 10
0
 20
0
 11
1.65
 21
-0.525
 12
1.65
 22
0.525
 13
1.65
 23
0.525
  0
ENDBLK
  8
0
  0
BLOCK
  8
0
  2
LCA3R
 70
0
 10
0
 20
0
  0
SOLID
  8
1
 62
7 
 10
0
 20
0
 11
2.15
 21
-1.15
 12
2.15
 22
1.15
 13
2.15
 23
1.15
  0
ENDBLK
  8
0
  0
BLOCK
  8
0
  2
B4366_00991963
 70
0
 10
0
 20
0
  0
LINE
  8
1
 10
-16.7954998016357
 20
-5
 11
-6.79549980163574
 21
-5
  0
LINE
  8
1
 10
-16.7954998016357
 20
7
 11
-2.79549980163574
 21
7
  0
LINE
  8
1
 10
-18.7954998016357
 20
7
 11
-16.7954998016357
 21
7
  0
LINE
  8
1
 10
-18.7954998016357
 20
3
 11
-16.7954998016357
 21
3
  0
LINE
  8
1
 10
-18.7954998016357
 20
-1
 11
-16.7954998016357
 21
-1
  0
LINE
  8
1
 10
-18.7954998016357
 20
-5
 11
-16.7954998016357
 21
-5
  0
LINE
  8
1
 10
-2.79549980163574
 20
-5
 11
-0.795499801635742
 21
-5
  0
LINE
  8
1
 10
-2.79549980163574
 20
-1
 11
-0.795499801635742
 21
-1
  0
LINE
  8
1
 10
-2.79549980163574
 20
3
 11
-0.795499801635742
 21
3
  0
LINE
  8
1
 10
-2.79549980163574
 20
7
 11
-0.795499801635742
 21
7
  0
POLYLINE
  8
1
 66
1
  0
VERTEX
  8
1
 10
-16.7954998016357
 20
8
  0
VERTEX
  8
1
 10
-2.79549980163574
 20
8
  0
VERTEX
  8
1
 10
-2.79549980163574
 20
-6
  0
VERTEX
  8
1
 10
-16.7954998016357
 20
-6
  0
VERTEX
  8
1
 10
-16.7954998016357
 20
8
  0
SEQEND
  8
1
  0
LINE
  8
1
 10
-0.795499801635742
 20
-5
 11
0.204500198364258
 21
-5
  0
SOLID
  8
1
 10
0.204500198364258
 20
-4.75
 11
1.70450019836426
 21
-4.75
 12
0.204500198364258
 22
-5.25
 13
1.70450019836426
 23
-5.25
  0
SOLID
  8
1
 10
1.70450019836426
 20
-5.25
 11
0.204500198364258
 21
-5.25
 12
0.204500198364258
 22
-5.25
 13
0.204500198364258
 23
-4.75
  0
LINE
  8
1
 10
-0.795499801635742
 20
-1
 11
0.204500198364258
 21
-1
  0
SOLID
  8
1
 10
0.204500198364258
 20
-0.75
 11
1.70450019836426
 21
-0.75
 12
0.204500198364258
 22
-1.25
 13
1.70450019836426
 23
-1.25
  0
SOLID
  8
1
 10
1.70450019836426
 20
-1.25
 11
0.204500198364258
 21
-1.25
 12
0.204500198364258
 22
-1.25
 13
0.204500198364258
 23
-0.75
  0
SOLID
  8
1
 10
0.204500198364258
 20
3.25
 11
1.70450019836426
 21
3.25
 12
0.204500198364258
 22
2.75
 13
1.70450019836426
 23
2.75
  0
SOLID
  8
1
 10
1.70450019836426
 20
2.75
 11
0.204500198364258
 21
2.75
 12
0.204500198364258
 22
2.75
 13
0.204500198364258
 23
3.25
  0
LINE
  8
1
 10
-0.795499801635742
 20
3
 11
0.204500198364258
 21
3
  0
LINE
  8
1
 10
-0.795499801635742
 20
7
 11
0.204500198364258
 21
7
  0
SOLID
  8
1
 10
0.204500198364258
 20
7.25
 11
1.70450019836426
 21
7.25
 12
0.204500198364258
 22
6.75
 13
1.70450019836426
 23
6.75
  0
SOLID
  8
1
 10
1.70450019836426
 20
6.75
 11
0.204500198364258
 21
6.75
 12
0.204500198364258
 22
6.75
 13
0.204500198364258
 23
7.25
  0
LINE
  8
1
 10
2.20450019836426
 20
7
 11
3.20450019836426
 21
7
  0
ARC
  8
1
 10
1.20450019836426
 20
7
 40
1
 50
270
 51
90
  0
LINE
  8
1
 10
2.20450019836426
 20
-5
 11
3.20450019836426
 21
-5
  0
ARC
  8
1
 10
1.20450019836426
 20
-5
 40
1
 50
270
 51
90
  0
LINE
  8
1
 10
2.20450019836426
 20
-1
 11
3.20450019836426
 21
-1
  0
ARC
  8
1
 10
1.20450019836426
 20
-1
 40
1
 50
270
 51
90
  0
LINE
  8
1
 10
2.20450019836426
 20
3
 11
3.20450019836426
 21
3
  0
ARC
  8
1
 10
1.20450019836426
 20
3
 40
1
 50
270
 51
90
  0
LINE
  8
1
 10
-19.7954998016357
 20
7
 11
-18.7954998016357
 21
7
  0
ARC
  8
1
 10
-20.7954998016357
 20
7
 40
1
 50
270
 51
90
  0
LINE
  8
1
 10
-19.7954998016357
 20
-5
 11
-18.7954998016357
 21
-5
  0
ARC
  8
1
 10
-20.7954998016357
 20
-5
 40
1
 50
270
 51
90
  0
LINE
  8
1
 10
-19.7954998016357
 20
-1
 11
-18.7954998016357
 21
-1
  0
ARC
  8
1
 10
-20.7954998016357
 20
-1
 40
1
 50
270
 51
90
  0
LINE
  8
1
 10
-19.7954998016357
 20
3
 11
-18.7954998016357
 21
3
  0
ARC
  8
1
 10
-20.7954998016357
 20
3
 40
1
 50
270
 51
90
  0
LINE
  8
1
 10
12.4045316380275
 20
7
 11
14.0045001983642
 21
7
  0
LINE
  8
1
 10
14.4045001983643
 20
7
 11
16.2045001983643
 21
7
  0
LINE
  8
1
 10
3.20450019836426
 20
7
 11
12.0045001983642
 21
7
  0
CIRCLE
  8
1
 10
14.2045001983643
 20
7
 40
0.2
  0
CIRCLE
  8
1
 10
12.2045001983643
 20
7
 40
0.2
  0
LINE
  8
1
 10
3.20450019836426
 20
-5
 11
16.2045001983643
 21
-5
  0
LINE
  8
1
 10
12.2045001983643
 20
-1
 11
14.2045001983643
 21
-1
  0
LINE
  8
1
 10
3.20450019836426
 20
-1
 11
6.20450019836426
 21
-1
  0
TEXT
  8
1
 40
1.125
 41
0.75
  1
L
  7
STANDARD
 72
1
 10
11.4179662068685
 20
-0.094075361887614
 11
11.4179662068685
 21
-0.094075361887614
  0
TEXT
  8
1
 40
1.8
 41
0.75
  1
R
  7
STANDARD
 72
1
 10
9.70450019836426
 20
-0.0999999999999986
 11
9.70450019836426
 21
-0.0999999999999986
  0
LINE
  8
1
 10
8.20450019836426
 20
-1
 11
6.20450019836426
 21
-1
  0
POLYLINE
  8
1
 66
1
  0
VERTEX
  8
1
 10
8.20450019836426
 20
-0.5
  0
VERTEX
  8
1
 10
12.2045001983643
 20
-0.5
  0
VERTEX
  8
1
 10
12.2045001983643
 20
-1.5
  0
VERTEX
  8
1
 10
8.20450019836426
 20
-1.5
  0
VERTEX
  8
1
 10
8.20450019836426
 20
-0.5
  0
SEQEND
  8
1
  0
LINE
  8
1
 10
14.2045001983643
 20
6.8
 11
14.2045001983643
 21
-1
  0
LINE
  8
1
 10
12.2045001983643
 20
6.8
 11
12.2045001983643
 21
3
  0
LINE
  8
1
 10
3.20450019836426
 20
3
 11
5.20450019836426
 21
3
  0
LINE
  8
1
 10
11.2045001983643
 20
3
 11
12.2045001983643
 21
3
  0
TEXT
  8
1
 40
1.125
 41
0.75
  1
L
  7
STANDARD
 72
1
 10
10.4179662068685
 20
3.90592463811239
 11
10.4179662068685
 21
3.90592463811239
  0
TEXT
  8
1
 40
1.8
 41
0.75
  1
R
  7
STANDARD
 72
1
 10
8.70450019836426
 20
3.9
 11
8.70450019836426
 21
3.9
  0
LINE
  8
1
 10
7.20450019836426
 20
3
 11
5.20450019836426
 21
3
  0
POLYLINE
  8
1
 66
1
  0
VERTEX
  8
1
 10
7.20450019836426
 20
3.5
  0
VERTEX
  8
1
 10
11.2045001983643
 20
3.5
  0
VERTEX
  8
1
 10
11.2045001983643
 20
2.5
  0
VERTEX
  8
1
 10
7.20450019836426
 20
2.5
  0
VERTEX
  8
1
 10
7.20450019836426
 20
3.5
  0
SEQEND
  8
1
  0
LINE
  8
1
  6
DOT
 10
-8.54549980163574
 20
-2.5
 11
-5.39550785956455
 21
-2.5
  0
LINE
  8
1
 10
-10.0454998016357
 20
-2.6
 11
-9.54549980163574
 21
-3
  0
LINE
  8
1
 10
-10.0454998016357
 20
-2.4
 11
-9.54549980163574
 21
-2
  0
SOLID
  8
1
 10
-8.04549980163574
 20
-0.5
 11
-8.65495127384975
 21
-1.00355625605903
 12
-8.04549980163574
 22
-0.5
 13
-8.23092722577154
 23
-1.26851588817562
  0
LINE
  8
1
 10
-10.5454998016357
 20
-4.5
 11
-8.04549980163574
 21
-0.5
  0
LINE
  8
1
 10
-10.0454998016357
 20
-3.5
 11
-10.0454998016357
 21
-4.5
  0
LINE
  8
1
 10
-10.0454998016357
 20
-1.5
 11
-10.0454998016357
 21
-0.5
  0
POLYLINE
  8
1
 66
1
  0
VERTEX
  8
1
 10
-11.5454998016357
 20
-1.5
  0
VERTEX
  8
1
 10
-8.54549980163574
 20
-1.5
  0
VERTEX
  8
1
 10
-8.54549980163574
 20
-3.5
  0
VERTEX
  8
1
 10
-11.5454998016357
 20
-3.5
  0
VERTEX
  8
1
 10
-11.5454998016357
 20
-1.5
  0
SEQEND
  8
1
  0
LINE
  8
1
 10
-10.0454998016357
 20
-2.1
 11
-10.0454998016357
 21
-2.9
  0
LINE
  8
1
 10
-11.0454998016357
 20
-2.5
 11
-10.0454998016357
 21
-2.5
  0
TEXT
  8
1
 40
1.8
 41
0.75
  1
NPN
  7
STANDARD
 72
1
 73
3
 10
-9.79549980163574
 20
-6.99947948455811
 11
-9.79549980163574
 21
-6.99947948455811
  0
TEXT
  8
1
 40
1.8
 41
0.75
  1
Is
  7
STANDARD
 72
2
 10
-21.2231809298197
 20
2.17473974227905
 11
-21.2231809298197
 21
2.17473974227905
  0
TEXT
  8
1
 40
1.8
 41
0.75
  1
1
  7
STANDARD
 10
-19.7954998016357
 20
7.44947948455811
  0
TEXT
  8
1
 40
1.8
 41
0.75
  1
4
  7
STANDARD
 10
-19.7954998016357
 20
3.44947948455811
  0
TEXT
  8
1
 40
1.8
 41
0.75
  1
2
  7
STANDARD
 10
-19.7954998016357
 20
-0.550520515441894
  0
TEXT
  8
1
 40
1.8
 41
0.75
  1
3
  7
STANDARD
 10
-19.7954998016357
 20
-4.55052051544189
  0
TEXT
  8
1
 40
1.8
 41
0.75
  1
+24V
  7
STANDARD
 10
16.6875913937887
 20
6.17473974227905
  0
TEXT
  8
1
 40
1.8
 41
0.75
  1
0V
  7
STANDARD
 10
16.607567469279
 20
-6.1
  0
TEXT
  8
1
 40
1.8
 41
0.75
  1
BU
  7
STANDARD
 10
2.20450019836426
 20
-4.55052051544189
  0
TEXT
  8
1
 40
1.8
 41
0.75
  1
WH
  7
STANDARD
 10
2.20450019836426
 20
-0.550520515441894
  0
TEXT
  8
1
 40
1.8
 41
0.75
  1
BK
  7
STANDARD
 10
2.20450019836426
 20
3.44947948455811
  0
TEXT
  8
1
 40
1.8
 41
0.75
  1
BN
  7
STANDARD
 10
2.20450019836426
 20
7.44947948455811
  0
TEXT
  8
1
 40
1.8
 41
0.75
  1
3
  7
STANDARD
 10
-2.79549980163574
 20
-4.55052051544189
  0
TEXT
  8
1
 40
1.8
 41
0.75
  1
2
  7
STANDARD
 10
-2.79549980163574
 20
-0.550520515441894
  0
TEXT
  8
1
 40
1.8
 41
0.75
  1
4
  7
STANDARD
 10
-2.79549980163574
 20
3.44947948455811
  0
TEXT
  8
1
 40
1.8
 41
0.75
  1
1
  7
STANDARD
 10
-2.79549980163574
 20
7.44947948455811
  0
LINE
  8
1
 10
-4.79549980163574
 20
-5
 11
-2.79549980163574
 21
-5
  0
LINE
  8
1
 10
-4.79549980163574
 20
-1
 11
-2.79549980163574
 21
-1
  0
LINE
  8
1
 10
-5.79549980163574
 20
-1.5
 11
-4.79549980163574
 21
-4
  0
LINE
  8
1
 10
-5.79549980163574
 20
-4
 11
-3.79549980163574
 21
-4
  0
LINE
  8
1
 10
-4.79549980163574
 20
-4
 11
-4.79549980163574
 21
-5
  0
LINE
  8
1
 10
-4.79549980163574
 20
-2
 11
-4.79549980163574
 21
-1
  0
LINE
  8
1
 10
-6.79549980163574
 20
-5
 11
-4.79549980163574
 21
-5
  0
LINE
  8
1
 10
-6.79549980163574
 20
1
 11
-6.79549980163574
 21
-5
  0
LINE
  8
1
 10
-6.79549980163574
 20
5
 11
-6.79549980163574
 21
4.5
  0
LINE
  8
1
 10
-4.79549980163574
 20
5
 11
-6.79549980163574
 21
5
  0
LINE
  8
1
 10
-4.79549980163574
 20
3
 11
-4.79549980163574
 21
5
  0
LINE
  8
1
 10
-2.79549980163574
 20
3
 11
-4.79549980163574
 21
3
  0
LINE
  8
1
 10
-7.79549980163574
 20
4.33333333333333
 11
-6.79549980163574
 21
1.83333333333333
  0
LINE
  8
1
 10
-7.79549980163574
 20
1.83333333333333
 11
-5.79549980163574
 21
1.83333333333333
  0
LINE
  8
1
 10
-6.79549980163574
 20
1.83333333333333
 11
-6.79549980163574
 21
0.833333333333333
  0
LINE
  8
1
 10
-6.79549980163574
 20
3.83333333333333
 11
-6.79549980163574
 21
4.83333333333333
  0
LINE
  8
1
  6
DOT
 10
-10.695499801627
 20
3
 11
-7.29549980163575
 21
3
  0
LINE
  8
1
 10
-12.195499801627
 20
2.9
 11
-11.695499801627
 21
2.5
  0
LINE
  8
1
 10
-12.195499801627
 20
3.1
 11
-11.695499801627
 21
3.5
  0
SOLID
  8
1
 10
-10.195499801627
 20
5
 11
-10.804951273841
 21
4.49644374394098
 12
-10.195499801627
 22
5
 13
-10.3809272257628
 23
4.23148411182438
  0
LINE
  8
1
 10
-12.695499801627
 20
1
 11
-10.195499801627
 21
5
  0
LINE
  8
1
 10
-12.195499801627
 20
2
 11
-12.195499801627
 21
1
  0
LINE
  8
1
 10
-12.195499801627
 20
4
 11
-12.195499801627
 21
5
  0
POLYLINE
  8
1
 66
1
  0
VERTEX
  8
1
 10
-13.695499801627
 20
4
  0
VERTEX
  8
1
 10
-10.695499801627
 20
4
  0
VERTEX
  8
1
 10
-10.695499801627
 20
2
  0
VERTEX
  8
1
 10
-13.695499801627
 20
2
  0
VERTEX
  8
1
 10
-13.695499801627
 20
4
  0
SEQEND
  8
1
  0
LINE
  8
1
 10
-12.195499801627
 20
3.4
 11
-12.195499801627
 21
2.6
  0
LINE
  8
1
 10
-13.195499801627
 20
3
 11
-12.195499801627
 21
3
  0
ENDBLK
  8
0
  0
ENDSEC
  0
SECTION
  2
ENTITIES
  0
INSERT
  8
1
  2
B4366_00991963
 10
24.3748548825582
 20
9.99999976158142
  0
ENDSEC
  0
EOF
