  0
SECTION
  2
HEADER
  9
$LIMMIN
 10
0
 20
0
  9
$LIMMAX
 10
52.5
 20
74.25
  9
$EXTMIN
 10
0
 20
50.0205969810486
  9
$EXTMAX
 10
0
 20
19.9999995231628
  0
ENDSEC
  0
SECTION
  2
TABLES
  0
TABLE
  2
LTYPE
 70
9
  0
LTYPE
  2
CONTINUOUS
 70
64
  3
Solid line
 72
65
 73
0
 40
0
  0
LTYPE
  2
DASHED
 70
64
  3
__ __ __ __ __ __ __ __ __
 72
65
 73
2
 40
0.75
 49
0.5
 49
-0.25
  0
LTYPE
  2
DOT
 70
64
  3
...........................
 72
65
 73
2
 40
0.25
 49
0
 49
-0.25
  0
LTYPE
  2
DASHDOT
 70
64
  3
__ . __ . __ . __ . __ . __ . 
 72
65
 73
4
 40
1
 49
0.5
 49
-0.25
 49
0
 49
-0.25
  0
ENDTAB
  0
TABLE
  2
LAYER
 70
10
  0
LAYER
  2
1
 70
0
 62
7
  6
CONTINUOUS
  0
LAYER
  2
CONNECTIONS
 70
0
 62
-7
  6
CONTINUOUS
  0
ENDTAB
  0
ENDSEC
  0
SECTION
  2
BLOCKS
  0
BLOCK
  8
0
  2
TRICON
 70
0
 10
0
 20
0
  0
POLYLINE
  8
1
 70
1
 66
1
 40
0.5
 41
0.5
  0
VERTEX
  8
1
 10
-0.25
 20
0
 42
1
  0
VERTEX
  8
1
 10
0.25
 20
0
 42
1
  0
SEQEND
  8
1
  0
ENDBLK
  8
0
  0
BLOCK
  8
0
  2
TRICONSMALL
 70
0
 10
0
 20
0
  0
POLYLINE
  8
1
 70
1
 66
1
 40
0.25
 41
0.25
  0
VERTEX
  8
1
 10
-0.125
 20
0
 42
1
  0
VERTEX
  8
1
 10
0.125
 20
0
 42
1
  0
SEQEND
  8
1
  0
ENDBLK
  8
0
  0
BLOCK
  8
0
  2
TRICONCIRCLE
 70
0
 10
0
 20
0
  0
CIRCLE
  8
1
 10
0
 20
0
 40
0.5
  0
ENDBLK
  8
0
  0
BLOCK
  8
0
  2
LCBP0
 70
0
 10
0
 20
0
  0
LINE
  8
1
 10
0
 20
-0.46875
 11
0
 21
0.46875
  0
ENDBLK
  8
0
  0
BLOCK
  8
0
  2
LCBP1
 70
0
 10
0
 20
0
  0
LINE
  8
1
 10
0
 20
-0.625
 11
0
 21
0.625
  0
ENDBLK
  8
0
  0
BLOCK
  8
0
  2
LCBP2
 70
0
 10
0
 20
0
  0
LINE
  8
1
 10
0
 20
-0.9375
 11
0
 21
0.9375
  0
ENDBLK
  8
0
  0
BLOCK
  8
0
  2
LCA1
 70
0
 10
0
 20
0
  0
SOLID
  8
1
 62
7 
 10
0
 20
0
 11
-1.4
 21
-0.275
 12
-1.4
 22
0.275
 13
-1.4
 23
0.275
  0
ENDBLK
  8
0
  0
BLOCK
  8
0
  2
LCA2
 70
0
 10
0
 20
0
  0
SOLID
  8
1
 62
7 
 10
0
 20
0
 11
-1.65
 21
-0.525
 12
-1.65
 22
0.525
 13
-1.65
 23
0.525
  0
ENDBLK
  8
0
  0
BLOCK
  8
0
  2
LCA3
 70
0
 10
0
 20
0
  0
SOLID
  8
1
 62
7 
 10
0
 20
0
 11
-2.15
 21
-1.15
 12
-2.15
 22
1.15
 13
-2.15
 23
1.15
  0
ENDBLK
  8
0
  0
BLOCK
  8
0
  2
LCA1R
 70
0
 10
0
 20
0
  0
SOLID
  8
1
 62
7 
 10
0
 20
0
 11
1.4
 21
-0.275
 12
1.4
 22
0.275
 13
1.4
 23
0.275
  0
ENDBLK
  8
0
  0
BLOCK
  8
0
  2
LCA2R
 70
0
 10
0
 20
0
  0
SOLID
  8
1
 62
7 
 10
0
 20
0
 11
1.65
 21
-0.525
 12
1.65
 22
0.525
 13
1.65
 23
0.525
  0
ENDBLK
  8
0
  0
BLOCK
  8
0
  2
LCA3R
 70
0
 10
0
 20
0
  0
SOLID
  8
1
 62
7 
 10
0
 20
0
 11
2.15
 21
-1.15
 12
2.15
 22
1.15
 13
2.15
 23
1.15
  0
ENDBLK
  8
0
  0
BLOCK
  8
0
  2
B4330_00991962
 70
0
 10
0
 20
0
  0
LINE
  8
1
 10
-16.1600562731425
 20
-5
 11
-2.1600562731425
 21
-5
  0
LINE
  8
1
 10
-16.1600562731425
 20
7
 11
-2.1600562731425
 21
7
  0
LINE
  8
1
 10
-18.1600562731425
 20
7
 11
-16.1600562731425
 21
7
  0
LINE
  8
1
 10
-18.1600562731425
 20
3
 11
-16.1600562731425
 21
3
  0
LINE
  8
1
 10
-18.1600562731425
 20
-1
 11
-16.1600562731425
 21
-1
  0
LINE
  8
1
 10
-18.1600562731425
 20
-5
 11
-16.1600562731425
 21
-5
  0
LINE
  8
1
 10
-2.1600562731425
 20
-5
 11
-0.160056273142497
 21
-5
  0
LINE
  8
1
 10
-2.1600562731425
 20
-1
 11
-0.160056273142497
 21
-1
  0
LINE
  8
1
 10
-2.1600562731425
 20
3
 11
-0.160056273142497
 21
3
  0
LINE
  8
1
 10
-2.1600562731425
 20
7
 11
-0.160056273142497
 21
7
  0
POLYLINE
  8
1
 66
1
  0
VERTEX
  8
1
 10
-16.1600562731425
 20
8
  0
VERTEX
  8
1
 10
-2.16005627314249
 20
8
  0
VERTEX
  8
1
 10
-2.16005627314249
 20
-6
  0
VERTEX
  8
1
 10
-16.1600562731425
 20
-6
  0
VERTEX
  8
1
 10
-16.1600562731425
 20
8
  0
SEQEND
  8
1
  0
LINE
  8
1
 10
-0.160056273142497
 20
-5
 11
0.839943726857503
 21
-5
  0
SOLID
  8
1
 10
0.839943726857503
 20
-4.75
 11
2.3399437268575
 21
-4.75
 12
0.839943726857503
 22
-5.25
 13
2.3399437268575
 23
-5.25
  0
SOLID
  8
1
 10
2.3399437268575
 20
-5.25
 11
0.839943726857503
 21
-5.25
 12
0.839943726857503
 22
-5.25
 13
0.839943726857503
 23
-4.75
  0
LINE
  8
1
 10
-0.160056273142497
 20
-1
 11
0.839943726857503
 21
-1
  0
SOLID
  8
1
 10
0.839943726857503
 20
-0.75
 11
2.3399437268575
 21
-0.75
 12
0.839943726857503
 22
-1.25
 13
2.3399437268575
 23
-1.25
  0
SOLID
  8
1
 10
2.3399437268575
 20
-1.25
 11
0.839943726857503
 21
-1.25
 12
0.839943726857503
 22
-1.25
 13
0.839943726857503
 23
-0.75
  0
SOLID
  8
1
 10
0.839943726857503
 20
3.25
 11
2.3399437268575
 21
3.25
 12
0.839943726857503
 22
2.75
 13
2.3399437268575
 23
2.75
  0
SOLID
  8
1
 10
2.3399437268575
 20
2.75
 11
0.839943726857503
 21
2.75
 12
0.839943726857503
 22
2.75
 13
0.839943726857503
 23
3.25
  0
LINE
  8
1
 10
-0.160056273142497
 20
3
 11
0.839943726857503
 21
3
  0
LINE
  8
1
 10
-0.160056273142497
 20
7
 11
0.839943726857503
 21
7
  0
SOLID
  8
1
 10
0.839943726857503
 20
7.25
 11
2.3399437268575
 21
7.25
 12
0.839943726857503
 22
6.75
 13
2.3399437268575
 23
6.75
  0
SOLID
  8
1
 10
2.3399437268575
 20
6.75
 11
0.839943726857503
 21
6.75
 12
0.839943726857503
 22
6.75
 13
0.839943726857503
 23
7.25
  0
LINE
  8
1
 10
2.8399437268575
 20
7
 11
3.8399437268575
 21
7
  0
ARC
  8
1
 10
1.8399437268575
 20
7
 40
1
 50
270
 51
90
  0
LINE
  8
1
 10
2.8399437268575
 20
-5
 11
3.8399437268575
 21
-5
  0
ARC
  8
1
 10
1.8399437268575
 20
-5
 40
1
 50
270
 51
90
  0
LINE
  8
1
 10
2.8399437268575
 20
-1
 11
3.8399437268575
 21
-1
  0
ARC
  8
1
 10
1.8399437268575
 20
-1
 40
1
 50
270
 51
90
  0
LINE
  8
1
 10
2.8399437268575
 20
3
 11
3.8399437268575
 21
3
  0
ARC
  8
1
 10
1.8399437268575
 20
3
 40
1
 50
270
 51
90
  0
LINE
  8
1
 10
-19.1600562731425
 20
7
 11
-18.1600562731425
 21
7
  0
ARC
  8
1
 10
-20.1600562731425
 20
7
 40
1
 50
270
 51
90
  0
LINE
  8
1
 10
-19.1600562731425
 20
-5
 11
-18.1600562731425
 21
-5
  0
ARC
  8
1
 10
-20.1600562731425
 20
-5
 40
1
 50
270
 51
90
  0
LINE
  8
1
 10
-19.1600562731425
 20
-1
 11
-18.1600562731425
 21
-1
  0
ARC
  8
1
 10
-20.1600562731425
 20
-1
 40
1
 50
270
 51
90
  0
LINE
  8
1
 10
-19.1600562731425
 20
3
 11
-18.1600562731425
 21
3
  0
ARC
  8
1
 10
-20.1600562731425
 20
3
 40
1
 50
270
 51
90
  0
TEXT
  8
1
 40
1.125
 41
0.75
  1
L
  7
STANDARD
 72
1
 10
11.0534097353617
 20
-0.094075361887614
 11
11.0534097353617
 21
-0.094075361887614
  0
TEXT
  8
1
 40
1.8
 41
0.75
  1
R
  7
STANDARD
 72
1
 10
9.3399437268575
 20
-0.0999999999999986
 11
9.3399437268575
 21
-0.0999999999999986
  0
TEXT
  8
1
 40
1.8
 41
0.75
  1
R
  7
STANDARD
 72
1
 10
11.3399437268575
 20
3.9
 11
11.3399437268575
 21
3.9
  0
TEXT
  8
1
 40
1.125
 41
0.75
  1
L
  7
STANDARD
 72
1
 10
13.0534097353617
 20
3.90592463811239
 11
13.0534097353617
 21
3.90592463811239
  0
LINE
  8
1
 10
13.0399751665207
 20
-5
 11
14.6399437268575
 21
-5
  0
LINE
  8
1
 10
15.0399437268575
 20
-5
 11
16.8399437268575
 21
-5
  0
LINE
  8
1
 10
3.8399437268575
 20
-5
 11
12.6399437268575
 21
-5
  0
CIRCLE
  8
1
 10
14.8399437268575
 20
-5
 40
0.2
  0
CIRCLE
  8
1
 10
12.8399437268575
 20
-5
 40
0.2
  0
LINE
  8
1
 10
3.8399437268575
 20
7
 11
16.8399437268575
 21
7
  0
LINE
  8
1
 10
12.8399437268575
 20
3
 11
14.8399437268575
 21
3
  0
LINE
  8
1
 10
3.8399437268575
 20
3
 11
6.8399437268575
 21
3
  0
LINE
  8
1
 10
8.8399437268575
 20
3
 11
6.8399437268575
 21
3
  0
POLYLINE
  8
1
 66
1
  0
VERTEX
  8
1
 10
8.8399437268575
 20
3.5
  0
VERTEX
  8
1
 10
12.8399437268575
 20
3.5
  0
VERTEX
  8
1
 10
12.8399437268575
 20
2.5
  0
VERTEX
  8
1
 10
8.8399437268575
 20
2.5
  0
VERTEX
  8
1
 10
8.8399437268575
 20
3.5
  0
SEQEND
  8
1
  0
LINE
  8
1
 10
14.8399437268575
 20
-4.8
 11
14.8399437268575
 21
3
  0
LINE
  8
1
 10
12.8399437268575
 20
-4.8
 11
12.8399437268575
 21
-1
  0
LINE
  8
1
 10
3.8399437268575
 20
-1
 11
5.8399437268575
 21
-1
  0
LINE
  8
1
 10
11.8399437268575
 20
-1
 11
12.8399437268575
 21
-1
  0
LINE
  8
1
 10
7.8399437268575
 20
-1
 11
5.8399437268575
 21
-1
  0
POLYLINE
  8
1
 66
1
  0
VERTEX
  8
1
 10
7.8399437268575
 20
-0.5
  0
VERTEX
  8
1
 10
11.8399437268575
 20
-0.5
  0
VERTEX
  8
1
 10
11.8399437268575
 20
-1.5
  0
VERTEX
  8
1
 10
7.8399437268575
 20
-1.5
  0
VERTEX
  8
1
 10
7.8399437268575
 20
-0.5
  0
SEQEND
  8
1
  0
LINE
  8
1
  6
DOT
 10
-7.9100562731425
 20
4.5
 11
-4.36005627313813
 21
4.5
  0
LINE
  8
1
 10
-9.4100562731425
 20
4.4
 11
-8.9100562731425
 21
4
  0
LINE
  8
1
 10
-9.4100562731425
 20
4.6
 11
-8.9100562731425
 21
5
  0
SOLID
  8
1
 10
-7.4100562731425
 20
6.5
 11
-8.01950774535651
 21
5.99644374394097
 12
-7.4100562731425
 22
6.5
 13
-7.59548369727829
 23
5.73148411182437
  0
LINE
  8
1
 10
-9.9100562731425
 20
2.5
 11
-7.4100562731425
 21
6.5
  0
LINE
  8
1
 10
-9.4100562731425
 20
3.5
 11
-9.4100562731425
 21
2.5
  0
LINE
  8
1
 10
-9.4100562731425
 20
5.5
 11
-9.4100562731425
 21
6.5
  0
POLYLINE
  8
1
 66
1
  0
VERTEX
  8
1
 10
-10.9100562731425
 20
5.5
  0
VERTEX
  8
1
 10
-7.9100562731425
 20
5.5
  0
VERTEX
  8
1
 10
-7.9100562731425
 20
3.5
  0
VERTEX
  8
1
 10
-10.9100562731425
 20
3.5
  0
VERTEX
  8
1
 10
-10.9100562731425
 20
5.5
  0
SEQEND
  8
1
  0
LINE
  8
1
 10
-9.4100562731425
 20
4.9
 11
-9.4100562731425
 21
4.1
  0
LINE
  8
1
 10
-10.4100562731425
 20
4.5
 11
-9.4100562731425
 21
4.5
  0
TEXT
  8
1
 40
1.8
 41
0.75
  1
PNP
  7
STANDARD
 72
1
 73
3
 10
-9.1600562731425
 20
-6.99947948455811
 11
-9.1600562731425
 21
-6.99947948455811
  0
TEXT
  8
1
 40
1.8
 41
0.75
  1
Us
  7
STANDARD
 72
2
 10
-20.5877374013265
 20
2.17473974227905
 11
-20.5877374013265
 21
2.17473974227905
  0
TEXT
  8
1
 40
1.8
 41
0.75
  1
1
  7
STANDARD
 10
-19.1600562731425
 20
7.44947948455811
  0
TEXT
  8
1
 40
1.8
 41
0.75
  1
4
  7
STANDARD
 10
-19.1600562731425
 20
3.44947948455811
  0
TEXT
  8
1
 40
1.8
 41
0.75
  1
2
  7
STANDARD
 10
-19.1600562731425
 20
-0.550520515441894
  0
TEXT
  8
1
 40
1.8
 41
0.75
  1
3
  7
STANDARD
 10
-19.1600562731425
 20
-4.55052051544189
  0
TEXT
  8
1
 40
1.8
 41
0.75
  1
+24V
  7
STANDARD
 10
17.3230349222819
 20
6.17473974227905
  0
TEXT
  8
1
 40
1.8
 41
0.75
  1
0V
  7
STANDARD
 10
17.2430109977722
 20
-6.1
  0
TEXT
  8
1
 40
1.8
 41
0.75
  1
BU
  7
STANDARD
 10
2.8399437268575
 20
-4.55052051544189
  0
TEXT
  8
1
 40
1.8
 41
0.75
  1
WH
  7
STANDARD
 10
2.8399437268575
 20
-0.550520515441894
  0
TEXT
  8
1
 40
1.8
 41
0.75
  1
BK
  7
STANDARD
 10
2.8399437268575
 20
3.44947948455811
  0
TEXT
  8
1
 40
1.8
 41
0.75
  1
BN
  7
STANDARD
 10
2.8399437268575
 20
7.44947948455811
  0
TEXT
  8
1
 40
1.8
 41
0.75
  1
3
  7
STANDARD
 10
-2.1600562731425
 20
-4.55052051544189
  0
TEXT
  8
1
 40
1.8
 41
0.75
  1
2
  7
STANDARD
 10
-2.1600562731425
 20
-0.550520515441894
  0
TEXT
  8
1
 40
1.8
 41
0.75
  1
4
  7
STANDARD
 10
-2.1600562731425
 20
3.44947948455811
  0
TEXT
  8
1
 40
1.8
 41
0.75
  1
1
  7
STANDARD
 10
-2.1600562731425
 20
7.44947948455811
  0
LINE
  8
1
 10
-4.1600562731425
 20
3
 11
-2.1600562731425
 21
3
  0
LINE
  8
1
 10
-4.1600562731425
 20
7
 11
-2.1600562731425
 21
7
  0
LINE
  8
1
 10
-5.1600562731425
 20
6.5
 11
-4.1600562731425
 21
4
  0
LINE
  8
1
 10
-5.1600562731425
 20
4
 11
-3.1600562731425
 21
4
  0
LINE
  8
1
 10
-4.1600562731425
 20
4
 11
-4.1600562731425
 21
3
  0
LINE
  8
1
 10
-4.1600562731425
 20
6
 11
-4.1600562731425
 21
7
  0
LINE
  8
1
 10
-6.1600562731425
 20
2.5
 11
-6.1600562731425
 21
0.5
  0
LINE
  8
1
 10
-4.1600562731425
 20
-1
 11
-4.1600562731425
 21
-3
  0
LINE
  8
1
 10
-6.1600562731425
 20
-3
 11
-4.1600562731425
 21
-3
  0
LINE
  8
1
 10
-6.1600562731425
 20
-2.16666666666667
 11
-6.1600562731425
 21
-3
  0
LINE
  8
1
 10
-7.1600562731425
 20
0.333333333333333
 11
-6.1600562731425
 21
-2.16666666666667
  0
LINE
  8
1
 10
-7.1600562731425
 20
-2.16666666666667
 11
-5.1600562731425
 21
-2.16666666666667
  0
LINE
  8
1
 10
-6.1600562731425
 20
-0.166666666666667
 11
-6.1600562731425
 21
0.833333333333333
  0
LINE
  8
1
 10
-2.1600562731425
 20
-1
 11
-4.1600562731425
 21
-1
  0
LINE
  8
1
 10
-6.1600562731425
 20
7
 11
-6.1600562731425
 21
2.5
  0
LINE
  8
1
  6
DOT
 10
-10.2100562731469
 20
-1
 11
-6.6600562731425
 21
-1
  0
LINE
  8
1
 10
-11.7100562731469
 20
-1.1
 11
-11.2100562731469
 21
-1.5
  0
LINE
  8
1
 10
-11.7100562731469
 20
-0.900000000000001
 11
-11.2100562731469
 21
-0.5
  0
SOLID
  8
1
 10
-9.71005627314687
 20
1
 11
-10.3195077453609
 21
0.496443743940974
 12
-9.71005627314687
 22
1
 13
-9.89548369728267
 23
0.231484111824374
  0
LINE
  8
1
 10
-12.2100562731469
 20
-3
 11
-9.71005627314686
 21
1
  0
LINE
  8
1
 10
-11.7100562731469
 20
-2
 11
-11.7100562731469
 21
-3
  0
LINE
  8
1
 10
-11.7100562731469
 20
0
 11
-11.7100562731469
 21
1
  0
POLYLINE
  8
1
 66
1
  0
VERTEX
  8
1
 10
-13.2100562731469
 20
0
  0
VERTEX
  8
1
 10
-10.2100562731469
 20
0
  0
VERTEX
  8
1
 10
-10.2100562731469
 20
-2
  0
VERTEX
  8
1
 10
-13.2100562731469
 20
-2
  0
VERTEX
  8
1
 10
-13.2100562731469
 20
0
  0
SEQEND
  8
1
  0
LINE
  8
1
 10
-11.7100562731469
 20
-0.599999999999999
 11
-11.7100562731469
 21
-1.4
  0
LINE
  8
1
 10
-12.7100562731469
 20
-1
 11
-11.7100562731469
 21
-1
  0
ENDBLK
  8
0
  0
ENDSEC
  0
SECTION
  2
ENTITIES
  0
INSERT
  8
1
  2
B4330_00991962
 10
25.0102984110514
 20
9.99999976158142
  0
ENDSEC
  0
EOF
