  0
SECTION
  2
HEADER
  9
$LIMMIN
 10
0
 20
0
  9
$LIMMAX
 10
52.5
 20
74.25
  9
$EXTMIN
 10
0
 20
48
  9
$EXTMAX
 10
0
 20
28
  0
ENDSEC
  0
SECTION
  2
TABLES
  0
TABLE
  2
LTYPE
 70
9
  0
LTYPE
  2
CONTINUOUS
 70
64
  3
Solid line
 72
65
 73
0
 40
0
  0
LTYPE
  2
DASHED
 70
64
  3
__ __ __ __ __ __ __ __ __
 72
65
 73
2
 40
0.75
 49
0.5
 49
-0.25
  0
LTYPE
  2
DOT
 70
64
  3
...........................
 72
65
 73
2
 40
0.25
 49
0
 49
-0.25
  0
LTYPE
  2
DASHDOT
 70
64
  3
__ . __ . __ . __ . __ . __ . 
 72
65
 73
4
 40
1
 49
0.5
 49
-0.25
 49
0
 49
-0.25
  0
ENDTAB
  0
TABLE
  2
LAYER
 70
10
  0
LAYER
  2
1
 70
0
 62
7
  6
CONTINUOUS
  0
LAYER
  2
CONNECTIONS
 70
0
 62
-7
  6
CONTINUOUS
  0
ENDTAB
  0
ENDSEC
  0
SECTION
  2
BLOCKS
  0
BLOCK
  8
0
  2
TRICON
 70
0
 10
0
 20
0
  0
POLYLINE
  8
1
 70
1
 66
1
 40
0.5
 41
0.5
  0
VERTEX
  8
1
 10
-0.25
 20
0
 42
1
  0
VERTEX
  8
1
 10
0.25
 20
0
 42
1
  0
SEQEND
  8
1
  0
ENDBLK
  8
0
  0
BLOCK
  8
0
  2
TRICONSMALL
 70
0
 10
0
 20
0
  0
POLYLINE
  8
1
 70
1
 66
1
 40
0.25
 41
0.25
  0
VERTEX
  8
1
 10
-0.125
 20
0
 42
1
  0
VERTEX
  8
1
 10
0.125
 20
0
 42
1
  0
SEQEND
  8
1
  0
ENDBLK
  8
0
  0
BLOCK
  8
0
  2
TRICONCIRCLE
 70
0
 10
0
 20
0
  0
CIRCLE
  8
1
 10
0
 20
0
 40
0.5
  0
ENDBLK
  8
0
  0
BLOCK
  8
0
  2
LCBP0
 70
0
 10
0
 20
0
  0
LINE
  8
1
 10
0
 20
-0.46875
 11
0
 21
0.46875
  0
ENDBLK
  8
0
  0
BLOCK
  8
0
  2
LCBP1
 70
0
 10
0
 20
0
  0
LINE
  8
1
 10
0
 20
-0.625
 11
0
 21
0.625
  0
ENDBLK
  8
0
  0
BLOCK
  8
0
  2
LCBP2
 70
0
 10
0
 20
0
  0
LINE
  8
1
 10
0
 20
-0.9375
 11
0
 21
0.9375
  0
ENDBLK
  8
0
  0
BLOCK
  8
0
  2
LCA1
 70
0
 10
0
 20
0
  0
SOLID
  8
1
 62
7 
 10
0
 20
0
 11
-1.4
 21
-0.275
 12
-1.4
 22
0.275
 13
-1.4
 23
0.275
  0
ENDBLK
  8
0
  0
BLOCK
  8
0
  2
LCA2
 70
0
 10
0
 20
0
  0
SOLID
  8
1
 62
7 
 10
0
 20
0
 11
-1.65
 21
-0.525
 12
-1.65
 22
0.525
 13
-1.65
 23
0.525
  0
ENDBLK
  8
0
  0
BLOCK
  8
0
  2
LCA3
 70
0
 10
0
 20
0
  0
SOLID
  8
1
 62
7 
 10
0
 20
0
 11
-2.15
 21
-1.15
 12
-2.15
 22
1.15
 13
-2.15
 23
1.15
  0
ENDBLK
  8
0
  0
BLOCK
  8
0
  2
LCA1R
 70
0
 10
0
 20
0
  0
SOLID
  8
1
 62
7 
 10
0
 20
0
 11
1.4
 21
-0.275
 12
1.4
 22
0.275
 13
1.4
 23
0.275
  0
ENDBLK
  8
0
  0
BLOCK
  8
0
  2
LCA2R
 70
0
 10
0
 20
0
  0
SOLID
  8
1
 62
7 
 10
0
 20
0
 11
1.65
 21
-0.525
 12
1.65
 22
0.525
 13
1.65
 23
0.525
  0
ENDBLK
  8
0
  0
BLOCK
  8
0
  2
LCA3R
 70
0
 10
0
 20
0
  0
SOLID
  8
1
 62
7 
 10
0
 20
0
 11
2.15
 21
-1.15
 12
2.15
 22
1.15
 13
2.15
 23
1.15
  0
ENDBLK
  8
0
  0
BLOCK
  8
0
  2
B407_00991917
 70
0
 10
0
 20
0
  0
LINE
  8
1
 10
1
 20
14
 11
1
 21
-6
  0
POLYLINE
  8
1
 70
1
 66
1
 40
0.5
 41
0.5
  0
VERTEX
  8
1
 10
0.75
 20
1
 42
1
  0
VERTEX
  8
1
 10
1.25
 20
1
 42
1
  0
SEQEND
  8
1
  0
LINE
  8
1
 10
-2
 20
1
 11
1
 21
1
  0
LINE
  8
1
 10
-13.5
 20
-3.5
 11
-15.5
 21
5.5
  0
INSERT
  8
1
  2
LCA1
 10
-15.5
 20
5.5
 50
102.528807709152
  0
POLYLINE
  8
1
 66
1
  0
VERTEX
  8
1
 10
-17
 20
1
  0
VERTEX
  8
1
 10
-16.5833333333333
 20
-1
  0
VERTEX
  8
1
 10
-15.75
 20
3
  0
VERTEX
  8
1
 10
-14.9166666666667
 20
-1
  0
VERTEX
  8
1
 10
-14.0833333333333
 20
3
  0
VERTEX
  8
1
 10
-13.25
 20
-1
  0
VERTEX
  8
1
 10
-12.4166666666667
 20
3
  0
VERTEX
  8
1
 10
-12
 20
1
  0
SEQEND
  8
1
  0
LINE
  8
1
 10
-2
 20
1
 11
-6
 21
1
  0
POLYLINE
  8
1
 66
1
  0
VERTEX
  8
1
 10
-12
 20
4
  0
VERTEX
  8
1
 10
-6
 20
4
  0
VERTEX
  8
1
 10
-6
 20
-2
  0
VERTEX
  8
1
 10
-12
 20
-2
  0
VERTEX
  8
1
 10
-12
 20
4
  0
SEQEND
  8
1
  0
POLYLINE
  8
1
 66
1
  0
VERTEX
  8
1
 10
-10.85
 20
0.699999999999996
  0
VERTEX
  8
1
 10
-9.85
 20
0.699999999999996
  0
VERTEX
  8
1
 10
-7.35
 20
1.7
  0
SEQEND
  8
1
  0
LINE
  8
1
 10
-8.15
 20
0.699999999999998
 11
-7.15
 21
0.699999999999998
  0
LINE
  8
1
 10
-24
 20
-7
 11
-7
 21
-7
  0
LINE
  8
1
 10
7
 20
-7
 11
-7
 21
-7
  0
ARC
  8
1
 10
1
 20
3
 40
9
 50
250.528596800055
 51
289.471050579339
  0
ARC
  8
1
 10
1
 20
-17
 40
9
 50
70.52865870751
 51
109.47139531546
  0
POLYLINE
  8
1
 66
1
  0
VERTEX
  8
1
 10
19
 20
-8
  0
VERTEX
  8
1
 10
21
 20
-7
  0
VERTEX
  8
1
 10
19
 20
-6
  0
SEQEND
  8
1
  0
LINE
  8
1
 10
7
 20
-7
 11
11
 21
-7
  0
LINE
  8
1
 10
17
 20
-5
 11
17
 21
-7
  0
LINE
  8
1
 10
15
 20
-9
 11
15
 21
-7
  0
LINE
  8
1
 10
13
 20
-5
 11
13
 21
-7
  0
POLYLINE
  8
1
 66
1
  0
VERTEX
  8
1
 10
11
 20
-5
  0
VERTEX
  8
1
 10
19
 20
-5
  0
VERTEX
  8
1
 10
19
 20
-9
  0
VERTEX
  8
1
 10
11
 20
-9
  0
VERTEX
  8
1
 10
11
 20
-5
  0
SEQEND
  8
1
  0
POLYLINE
  8
1
 66
1
  0
VERTEX
  8
1
 10
-20
 20
10
  0
VERTEX
  8
1
 10
24
 20
10
  0
VERTEX
  8
1
 10
24
 20
-14
  0
VERTEX
  8
1
 10
-20
 20
-14
  0
VERTEX
  8
1
 10
-20
 20
10
  0
SEQEND
  8
1
  0
TEXT
  8
1
 40
2.475
 41
0.75
  1
2
  7
STANDARD
 10
-3
 20
10.7375
  0
TEXT
  8
1
 40
2.475
 41
0.75
  1
1
  7
STANDARD
 10
-23.5
 20
-6.2625
  0
CIRCLE
  8
CONNECTIONS
 10
-24
 20
-7
 40
0
  0
CIRCLE
  8
CONNECTIONS
 10
1
 20
14
 40
0
  0
CIRCLE
  8
CONNECTIONS
 10
-9
 20
4
 40
0
  0
ENDBLK
  8
0
  0
ENDSEC
  0
SECTION
  2
ENTITIES
  0
INSERT
  8
1
  2
B407_00991917
 10
24
 20
14
  0
ENDSEC
  0
EOF
