  0
SECTION
  2
HEADER
  9
$LIMMIN
 10
0
 20
0
  9
$LIMMAX
 10
52.5
 20
74.25
  9
$EXTMIN
 10
0
 20
37
  9
$EXTMAX
 10
0
 20
26
  0
ENDSEC
  0
SECTION
  2
TABLES
  0
TABLE
  2
LTYPE
 70
9
  0
LTYPE
  2
CONTINUOUS
 70
64
  3
Solid line
 72
65
 73
0
 40
0
  0
LTYPE
  2
DASHED
 70
64
  3
__ __ __ __ __ __ __ __ __
 72
65
 73
2
 40
0.75
 49
0.5
 49
-0.25
  0
LTYPE
  2
DOT
 70
64
  3
...........................
 72
65
 73
2
 40
0.25
 49
0
 49
-0.25
  0
LTYPE
  2
DASHDOT
 70
64
  3
__ . __ . __ . __ . __ . __ . 
 72
65
 73
4
 40
1
 49
0.5
 49
-0.25
 49
0
 49
-0.25
  0
ENDTAB
  0
TABLE
  2
LAYER
 70
10
  0
LAYER
  2
1
 70
0
 62
7
  6
CONTINUOUS
  0
LAYER
  2
CONNECTIONS
 70
0
 62
-7
  6
CONTINUOUS
  0
ENDTAB
  0
ENDSEC
  0
SECTION
  2
BLOCKS
  0
BLOCK
  8
0
  2
TRICON
 70
0
 10
0
 20
0
  0
POLYLINE
  8
1
 70
1
 66
1
 40
0.5
 41
0.5
  0
VERTEX
  8
1
 10
-0.25
 20
0
 42
1
  0
VERTEX
  8
1
 10
0.25
 20
0
 42
1
  0
SEQEND
  8
1
  0
ENDBLK
  8
0
  0
BLOCK
  8
0
  2
TRICONSMALL
 70
0
 10
0
 20
0
  0
POLYLINE
  8
1
 70
1
 66
1
 40
0.25
 41
0.25
  0
VERTEX
  8
1
 10
-0.125
 20
0
 42
1
  0
VERTEX
  8
1
 10
0.125
 20
0
 42
1
  0
SEQEND
  8
1
  0
ENDBLK
  8
0
  0
BLOCK
  8
0
  2
TRICONCIRCLE
 70
0
 10
0
 20
0
  0
CIRCLE
  8
1
 10
0
 20
0
 40
0.5
  0
ENDBLK
  8
0
  0
BLOCK
  8
0
  2
LCBP0
 70
0
 10
0
 20
0
  0
LINE
  8
1
 10
0
 20
-0.46875
 11
0
 21
0.46875
  0
ENDBLK
  8
0
  0
BLOCK
  8
0
  2
LCBP1
 70
0
 10
0
 20
0
  0
LINE
  8
1
 10
0
 20
-0.625
 11
0
 21
0.625
  0
ENDBLK
  8
0
  0
BLOCK
  8
0
  2
LCBP2
 70
0
 10
0
 20
0
  0
LINE
  8
1
 10
0
 20
-0.9375
 11
0
 21
0.9375
  0
ENDBLK
  8
0
  0
BLOCK
  8
0
  2
LCA1
 70
0
 10
0
 20
0
  0
SOLID
  8
1
 62
7 
 10
0
 20
0
 11
-1.4
 21
-0.275
 12
-1.4
 22
0.275
 13
-1.4
 23
0.275
  0
ENDBLK
  8
0
  0
BLOCK
  8
0
  2
LCA2
 70
0
 10
0
 20
0
  0
SOLID
  8
1
 62
7 
 10
0
 20
0
 11
-1.65
 21
-0.525
 12
-1.65
 22
0.525
 13
-1.65
 23
0.525
  0
ENDBLK
  8
0
  0
BLOCK
  8
0
  2
LCA3
 70
0
 10
0
 20
0
  0
SOLID
  8
1
 62
7 
 10
0
 20
0
 11
-2.15
 21
-1.15
 12
-2.15
 22
1.15
 13
-2.15
 23
1.15
  0
ENDBLK
  8
0
  0
BLOCK
  8
0
  2
LCA1R
 70
0
 10
0
 20
0
  0
SOLID
  8
1
 62
7 
 10
0
 20
0
 11
1.4
 21
-0.275
 12
1.4
 22
0.275
 13
1.4
 23
0.275
  0
ENDBLK
  8
0
  0
BLOCK
  8
0
  2
LCA2R
 70
0
 10
0
 20
0
  0
SOLID
  8
1
 62
7 
 10
0
 20
0
 11
1.65
 21
-0.525
 12
1.65
 22
0.525
 13
1.65
 23
0.525
  0
ENDBLK
  8
0
  0
BLOCK
  8
0
  2
LCA3R
 70
0
 10
0
 20
0
  0
SOLID
  8
1
 62
7 
 10
0
 20
0
 11
2.15
 21
-1.15
 12
2.15
 22
1.15
 13
2.15
 23
1.15
  0
ENDBLK
  8
0
  0
BLOCK
  8
0
  2
B18643_00991885
 70
0
 10
0
 20
0
  0
POLYLINE
  8
1
 66
1
  0
VERTEX
  8
1
 10
-16.5
 20
9
  0
VERTEX
  8
1
 10
16.5
 20
9
  0
VERTEX
  8
1
 10
16.5
 20
-9
  0
VERTEX
  8
1
 10
-16.5
 20
-9
  0
VERTEX
  8
1
 10
-16.5
 20
9
  0
SEQEND
  8
1
  0
TEXT
  8
1
 40
2.475
 41
0.75
  1
4
  7
STANDARD
 72
2
 73
2
 10
3.5
 20
-11.9
 11
3.5
 21
-11.9
  0
TEXT
  8
1
 40
2.475
 41
0.75
  1
4
  7
STANDARD
 72
2
 73
2
 10
3.5
 20
12.1
 11
3.5
 21
12.1
  0
LINE
  8
1
 10
4.5
 20
9
 11
4.5
 21
13
  0
LINE
  8
1
 10
4.5
 20
-9
 11
4.5
 21
-13
  0
TEXT
  8
1
 40
2.475
 41
0.75
  1
2
  7
STANDARD
 73
2
 10
-9.5
 20
-12
 11
-9.5
 21
-12
  0
TEXT
  8
1
 40
2.475
 41
0.75
  1
2
  7
STANDARD
 73
2
 10
-9.36522102355957
 20
12
 11
-9.36522102355957
 21
12
  0
LINE
  8
1
 10
-10.5
 20
9
 11
-10.5
 21
13
  0
LINE
  8
1
 10
-10.5
 20
-9
 11
-10.5
 21
-13
  0
LINE
  8
1
 10
4.5
 20
5
 11
4.5
 21
9
  0
LINE
  8
1
 10
4.5
 20
-9
 11
4.5
 21
-5
  0
LINE
  8
1
 10
12.5
 20
-5
 11
12.5
 21
-4
  0
LINE
  8
1
 10
12.5
 20
5
 11
12.5
 21
4
  0
POLYLINE
  8
1
 70
1
 66
1
 40
0.5
 41
0.5
  0
VERTEX
  8
1
 10
4.25
 20
-5
 42
1
  0
VERTEX
  8
1
 10
4.75
 20
-5
 42
1
  0
SEQEND
  8
1
  0
POLYLINE
  8
1
 70
1
 66
1
 40
0.5
 41
0.5
  0
VERTEX
  8
1
 10
4.25
 20
5
 42
1
  0
VERTEX
  8
1
 10
4.75
 20
5
 42
1
  0
SEQEND
  8
1
  0
LINE
  8
1
 10
4.5
 20
-5
 11
12.5
 21
-5
  0
LINE
  8
1
 10
12.5
 20
5
 11
4.5
 21
5
  0
LINE
  8
1
 10
-10.5
 20
5
 11
-10.5
 21
9
  0
LINE
  8
1
 10
-10.5
 20
-9
 11
-10.5
 21
-5
  0
LINE
  8
1
 10
-2.5
 20
-5
 11
-2.5
 21
-4
  0
LINE
  8
1
 10
-2.5
 20
5
 11
-2.5
 21
4
  0
POLYLINE
  8
1
 70
1
 66
1
 40
0.5
 41
0.5
  0
VERTEX
  8
1
 10
-10.75
 20
-5
 42
1
  0
VERTEX
  8
1
 10
-10.25
 20
-5
 42
1
  0
SEQEND
  8
1
  0
POLYLINE
  8
1
 70
1
 66
1
 40
0.5
 41
0.5
  0
VERTEX
  8
1
 10
-10.75
 20
5
 42
1
  0
VERTEX
  8
1
 10
-10.25
 20
5
 42
1
  0
SEQEND
  8
1
  0
LINE
  8
1
 10
-10.5
 20
-5
 11
-2.5
 21
-5
  0
LINE
  8
1
 10
-2.5
 20
5
 11
-10.5
 21
5
  0
LINE
  8
1
 10
12.5
 20
4
 11
12.5
 21
1.60000000000001
  0
LINE
  8
1
 10
12.5
 20
-1
 11
12.5
 21
-3.89999999999998
  0
POLYLINE
  8
1
 66
1
  0
VERTEX
  8
1
 10
10.5
 20
-0.399999999999981
  0
VERTEX
  8
1
 10
12.5
 20
1.60000000000001
  0
VERTEX
  8
1
 10
14.5
 20
-0.399999999999981
  0
SEQEND
  8
1
  0
CIRCLE
  8
1
 10
12.5
 20
0.133333333333349
 40
1
  0
LINE
  8
1
 10
-2.5
 20
-1
 11
-2.5
 21
-4
  0
LINE
  8
1
 10
-2.5
 20
4
 11
-2.5
 21
1.60000000000001
  0
POLYLINE
  8
1
 66
1
  0
VERTEX
  8
1
 10
-4.5
 20
-0.399999999999981
  0
VERTEX
  8
1
 10
-2.5
 20
1.60000000000001
  0
VERTEX
  8
1
 10
-0.5
 20
-0.399999999999981
  0
SEQEND
  8
1
  0
CIRCLE
  8
1
 10
-2.5
 20
0.133333333333349
 40
1
  0
LINE
  8
1
 10
1.56666666666667
 20
-1.46666666666667
 11
8.56666666666667
 21
1.53333333333333
  0
INSERT
  8
1
  2
LCA1
 10
8.56666666666667
 20
1.53333333333333
 50
23.1985905136482
  0
LINE
  8
1
 10
4.5
 20
5
 11
4.5
 21
-5
  0
ARC
  8
1
 10
-5.5
 20
0
 40
9
 50
340.528596800055
 51
19.4710505793386
  0
ARC
  8
1
 10
14.5
 20
0
 40
9
 50
160.52865870751
 51
199.47139531546
  0
LINE
  8
1
 10
-13.4333333333333
 20
-1.46666666666667
 11
-6.43333333333333
 21
1.53333333333333
  0
INSERT
  8
1
  2
LCA1
 10
-6.43333333333333
 20
1.53333333333333
 50
23.1985905136482
  0
LINE
  8
1
 10
-10.5
 20
5
 11
-10.5
 21
-5
  0
ARC
  8
1
 10
-20.5
 20
0
 40
9
 50
340.528596800055
 51
19.4710505793386
  0
ARC
  8
1
 10
-0.5
 20
0
 40
9
 50
160.52865870751
 51
199.47139531546
  0
POLYLINE
  8
1
 66
1
  0
VERTEX
  8
1
 10
16.5
 20
9
  0
VERTEX
  8
1
 10
18.5
 20
9
  0
VERTEX
  8
1
 10
18.5
 20
5
  0
VERTEX
  8
1
 10
16.5
 20
5
  0
VERTEX
  8
1
 10
16.5
 20
9
  0
SEQEND
  8
1
  0
POLYLINE
  8
1
 66
1
  0
VERTEX
  8
1
 10
-18.5
 20
9
  0
VERTEX
  8
1
 10
-16.5
 20
9
  0
VERTEX
  8
1
 10
-16.5
 20
5
  0
VERTEX
  8
1
 10
-18.5
 20
5
  0
VERTEX
  8
1
 10
-18.5
 20
9
  0
SEQEND
  8
1
  0
CIRCLE
  8
CONNECTIONS
 10
4.5
 20
-13
 40
0
  0
CIRCLE
  8
CONNECTIONS
 10
4.5
 20
13
 40
0
  0
CIRCLE
  8
CONNECTIONS
 10
-10.5
 20
-13
 40
0
  0
CIRCLE
  8
CONNECTIONS
 10
-10.5
 20
13
 40
0
  0
ENDBLK
  8
0
  0
ENDSEC
  0
SECTION
  2
ENTITIES
  0
INSERT
  8
1
  2
B18643_00991885
 10
18.5
 20
13
  0
ENDSEC
  0
EOF
