  0
SECTION
  2
HEADER
  9
$LIMMIN
 10
0
 20
0
  9
$LIMMAX
 10
52.5
 20
74.25
  9
$EXTMIN
 10
0
 20
37.2701173623403
  9
$EXTMAX
 10
0
 20
12.9010407924652
  0
ENDSEC
  0
SECTION
  2
TABLES
  0
TABLE
  2
LTYPE
 70
9
  0
LTYPE
  2
CONTINUOUS
 70
64
  3
Solid line
 72
65
 73
0
 40
0
  0
LTYPE
  2
DASHED
 70
64
  3
__ __ __ __ __ __ __ __ __
 72
65
 73
2
 40
0.75
 49
0.5
 49
-0.25
  0
LTYPE
  2
DOT
 70
64
  3
...........................
 72
65
 73
2
 40
0.25
 49
0
 49
-0.25
  0
LTYPE
  2
DASHDOT
 70
64
  3
__ . __ . __ . __ . __ . __ . 
 72
65
 73
4
 40
1
 49
0.5
 49
-0.25
 49
0
 49
-0.25
  0
ENDTAB
  0
TABLE
  2
LAYER
 70
10
  0
LAYER
  2
1
 70
0
 62
7
  6
CONTINUOUS
  0
LAYER
  2
CONNECTIONS
 70
0
 62
-7
  6
CONTINUOUS
  0
ENDTAB
  0
ENDSEC
  0
SECTION
  2
BLOCKS
  0
BLOCK
  8
0
  2
TRICON
 70
0
 10
0
 20
0
  0
POLYLINE
  8
1
 70
1
 66
1
 40
0.5
 41
0.5
  0
VERTEX
  8
1
 10
-0.25
 20
0
 42
1
  0
VERTEX
  8
1
 10
0.25
 20
0
 42
1
  0
SEQEND
  8
1
  0
ENDBLK
  8
0
  0
BLOCK
  8
0
  2
TRICONSMALL
 70
0
 10
0
 20
0
  0
POLYLINE
  8
1
 70
1
 66
1
 40
0.25
 41
0.25
  0
VERTEX
  8
1
 10
-0.125
 20
0
 42
1
  0
VERTEX
  8
1
 10
0.125
 20
0
 42
1
  0
SEQEND
  8
1
  0
ENDBLK
  8
0
  0
BLOCK
  8
0
  2
TRICONCIRCLE
 70
0
 10
0
 20
0
  0
CIRCLE
  8
1
 10
0
 20
0
 40
0.5
  0
ENDBLK
  8
0
  0
BLOCK
  8
0
  2
LCBP0
 70
0
 10
0
 20
0
  0
LINE
  8
1
 10
0
 20
-0.46875
 11
0
 21
0.46875
  0
ENDBLK
  8
0
  0
BLOCK
  8
0
  2
LCBP1
 70
0
 10
0
 20
0
  0
LINE
  8
1
 10
0
 20
-0.625
 11
0
 21
0.625
  0
ENDBLK
  8
0
  0
BLOCK
  8
0
  2
LCBP2
 70
0
 10
0
 20
0
  0
LINE
  8
1
 10
0
 20
-0.9375
 11
0
 21
0.9375
  0
ENDBLK
  8
0
  0
BLOCK
  8
0
  2
LCA1
 70
0
 10
0
 20
0
  0
SOLID
  8
1
 62
7 
 10
0
 20
0
 11
-1.4
 21
-0.275
 12
-1.4
 22
0.275
 13
-1.4
 23
0.275
  0
ENDBLK
  8
0
  0
BLOCK
  8
0
  2
LCA2
 70
0
 10
0
 20
0
  0
SOLID
  8
1
 62
7 
 10
0
 20
0
 11
-1.65
 21
-0.525
 12
-1.65
 22
0.525
 13
-1.65
 23
0.525
  0
ENDBLK
  8
0
  0
BLOCK
  8
0
  2
LCA3
 70
0
 10
0
 20
0
  0
SOLID
  8
1
 62
7 
 10
0
 20
0
 11
-2.15
 21
-1.15
 12
-2.15
 22
1.15
 13
-2.15
 23
1.15
  0
ENDBLK
  8
0
  0
BLOCK
  8
0
  2
LCA1R
 70
0
 10
0
 20
0
  0
SOLID
  8
1
 62
7 
 10
0
 20
0
 11
1.4
 21
-0.275
 12
1.4
 22
0.275
 13
1.4
 23
0.275
  0
ENDBLK
  8
0
  0
BLOCK
  8
0
  2
LCA2R
 70
0
 10
0
 20
0
  0
SOLID
  8
1
 62
7 
 10
0
 20
0
 11
1.65
 21
-0.525
 12
1.65
 22
0.525
 13
1.65
 23
0.525
  0
ENDBLK
  8
0
  0
BLOCK
  8
0
  2
LCA3R
 70
0
 10
0
 20
0
  0
SOLID
  8
1
 62
7 
 10
0
 20
0
 11
2.15
 21
-1.15
 12
2.15
 22
1.15
 13
2.15
 23
1.15
  0
ENDBLK
  8
0
  0
BLOCK
  8
0
  2
B2433_00991853
 70
0
 10
0
 20
0
  0
LINE
  8
1
 10
-5.53529596328735
 20
-4.54947916666667
 11
-3.53529596328735
 21
-4.54947916666667
  0
LINE
  8
1
 10
-15.5352959632874
 20
-0.549479166666668
 11
-10.5352959632874
 21
4.45052083333333
  0
POLYLINE
  8
1
 66
1
  0
VERTEX
  8
1
 10
-15.5352959632874
 20
4.45052083333333
  0
VERTEX
  8
1
 10
-5.53529596328735
 20
4.45052083333333
  0
VERTEX
  8
1
 10
-5.53529596328735
 20
-5.54947916666667
  0
VERTEX
  8
1
 10
-15.5352959632874
 20
-5.54947916666667
  0
VERTEX
  8
1
 10
-15.5352959632874
 20
4.45052083333333
  0
SEQEND
  8
1
  0
LINE
  8
1
 10
-5.53529596328735
 20
-0.549479166666668
 11
-3.53529596328735
 21
-0.549479166666668
  0
LINE
  8
1
 10
-5.53529596328735
 20
3.45052083333333
 11
-3.53529596328735
 21
3.45052083333333
  0
LINE
  8
1
 10
-6.53529596328735
 20
-0.549479166666668
 11
-5.53529596328735
 21
-0.549479166666668
  0
POLYLINE
  8
1
 66
1
  0
VERTEX
  8
1
 10
-8.53529596328735
 20
0.450520833333332
  0
VERTEX
  8
1
 10
-8.53529596328735
 20
-1.54947916666667
  0
VERTEX
  8
1
 10
-6.53529596328735
 20
-0.549479166666668
  0
VERTEX
  8
1
 10
-8.53529596328735
 20
0.450520833333332
  0
SEQEND
  8
1
  0
TEXT
  8
1
 40
1.8
 41
0.75
  1
U
  7
STANDARD
 72
2
 73
2
 10
-12.0352959632874
 20
-1.54947916666667
 11
-12.0352959632874
 21
-1.54947916666667
  0
LINE
  8
1
 10
-9.03529596328735
 20
-0.549479166666668
 11
-12.0352959632874
 21
-2.54947916666667
  0
LINE
  8
1
 10
-12.0352959632874
 20
-2.54947916666667
 11
-9.03529596328735
 21
-2.54947916666667
  0
LINE
  8
1
 10
-12.0352959632874
 20
-0.0494791666666679
 11
-12.0352959632874
 21
-2.54947916666667
  0
LINE
  8
1
 10
-0.135295963287357
 20
-4.54947916666667
 11
8.21470403671265
 21
-4.54947916666667
  0
LINE
  8
1
 10
3.46470403671265
 20
-0.549479166666668
 11
-0.135295963287357
 21
-0.549479166666668
  0
LINE
  8
1
 10
-0.135295963287357
 20
3.45052083333333
 11
10.4647040367126
 21
3.45052083333333
  0
LINE
  8
1
 10
8.46470403671265
 20
-0.549479166666668
 11
8.46470403671265
 21
-4.29947916666667
  0
LINE
  8
1
 10
8.71470403671265
 20
-4.54947916666667
 11
10.4647040367126
 21
-4.54947916666667
  0
CIRCLE
  8
1
 10
8.46470403671265
 20
-4.54947916666667
 40
0.25
  0
LINE
  8
1
 10
7.46470403671265
 20
-0.549479166666668
 11
8.46470403671265
 21
-0.549479166666668
  0
POLYLINE
  8
1
 66
1
  0
VERTEX
  8
1
 10
3.46470403671265
 20
-0.0494791666666679
  0
VERTEX
  8
1
 10
7.46470403671265
 20
-0.0494791666666679
  0
VERTEX
  8
1
 10
7.46470403671265
 20
-1.04947916666667
  0
VERTEX
  8
1
 10
3.46470403671265
 20
-1.04947916666667
  0
VERTEX
  8
1
 10
3.46470403671265
 20
-0.0494791666666679
  0
SEQEND
  8
1
  0
TEXT
  8
1
 40
1.125
 41
0.75
  1
L
  7
STANDARD
 72
1
 10
6.67817004521688
 20
0.356445471445718
 11
6.67817004521688
 21
0.356445471445718
  0
TEXT
  8
1
 40
1.8
 41
0.75
  1
R
  7
STANDARD
 72
1
 10
4.96470403671265
 20
0.350520833333333
 11
4.96470403671265
 21
0.350520833333333
  0
LINE
  8
1
 10
-3.53529596328735
 20
-4.54947916666667
 11
-0.935295963287354
 21
-4.54947916666667
  0
LINE
  8
1
 10
-3.53529596328735
 20
-0.549479166666668
 11
-0.935295963287354
 21
-0.549479166666668
  0
LINE
  8
1
 10
-3.53529596328735
 20
3.45052083333333
 11
-0.935295963287354
 21
3.45052083333333
  0
LINE
  8
1
 10
-1.03529596328735
 20
-4.54947916666667
 11
-0.935295963287352
 21
-4.54947916666667
  0
CIRCLE
  8
1
 10
-0.535295963287354
 20
-4.54947916666667
 40
0.4
  0
CIRCLE
  8
1
 10
-0.535295963287354
 20
-0.549479166666668
 40
0.4
  0
CIRCLE
  8
1
 10
-0.535295963287354
 20
3.45052083333333
 40
0.4
  0
TEXT
  8
1
 40
1.8
 41
0.75
  1
BU
  7
STANDARD
 10
-5.53529596328735
 20
-4.09999968210856
  0
TEXT
  8
1
 40
1.8
 41
0.75
  1
BK
  7
STANDARD
 10
-5.53529596328735
 20
-0.0999996821085624
  0
TEXT
  8
1
 40
1.8
 41
0.75
  1
BN
  7
STANDARD
 10
-5.53529596328735
 20
3.90000031789144
  0
TEXT
  8
1
 40
1.8
 41
0.75
  1
0V
  7
STANDARD
 10
11.4647040367126
 20
-5.55052019755045
  0
TEXT
  8
1
 40
1.8
 41
0.75
  1
+24V
  7
STANDARD
 10
10.947795232137
 20
2.62526057561238
  0
TEXT
  8
1
 40
1.8
 41
0.75
  1
q
  7
STANDARD
 72
2
 10
-16.1181502342224
 20
2.12526121139526
 11
-16.1181502342224
 21
2.12526121139526
  0
LINE
  8
1
 10
-15.5352959632874
 20
1.95052083333333
 11
-14.5352959632874
 21
1.45052083333333
  0
LINE
  8
1
 10
-14.5352959632874
 20
1.45052083333333
 11
-15.5352959632874
 21
0.950520833333332
  0
LINE
  8
1
 10
-15.5352959632874
 20
1.95052083333333
 11
-15.5352959632874
 21
0.950520833333332
  0
LINE
  8
1
 10
-18.5352959632874
 20
1.45052083333333
 11
-15.5352959632874
 21
1.45052083333333
  0
ENDBLK
  8
0
  0
ENDSEC
  0
SECTION
  2
ENTITIES
  0
INSERT
  8
1
  2
B2433_00991853
 10
18.6350587209066
 20
6.45052019755045
  0
ENDSEC
  0
EOF
