  0
SECTION
  2
HEADER
  9
$LIMMIN
 10
0
 20
0
  9
$LIMMAX
 10
52.5
 20
74.25
  9
$EXTMIN
 10
0
 20
70.9323431650797
  9
$EXTMAX
 10
0
 20
16.9722326755524
  0
ENDSEC
  0
SECTION
  2
TABLES
  0
TABLE
  2
LTYPE
 70
9
  0
LTYPE
  2
CONTINUOUS
 70
64
  3
Solid line
 72
65
 73
0
 40
0
  0
LTYPE
  2
DASHED
 70
64
  3
__ __ __ __ __ __ __ __ __
 72
65
 73
2
 40
0.75
 49
0.5
 49
-0.25
  0
LTYPE
  2
DOT
 70
64
  3
...........................
 72
65
 73
2
 40
0.25
 49
0
 49
-0.25
  0
LTYPE
  2
DASHDOT
 70
64
  3
__ . __ . __ . __ . __ . __ . 
 72
65
 73
4
 40
1
 49
0.5
 49
-0.25
 49
0
 49
-0.25
  0
ENDTAB
  0
TABLE
  2
LAYER
 70
10
  0
LAYER
  2
1
 70
0
 62
7
  6
CONTINUOUS
  0
LAYER
  2
CONNECTIONS
 70
0
 62
-7
  6
CONTINUOUS
  0
ENDTAB
  0
ENDSEC
  0
SECTION
  2
BLOCKS
  0
BLOCK
  8
0
  2
TRICON
 70
0
 10
0
 20
0
  0
POLYLINE
  8
1
 70
1
 66
1
 40
0.5
 41
0.5
  0
VERTEX
  8
1
 10
-0.25
 20
0
 42
1
  0
VERTEX
  8
1
 10
0.25
 20
0
 42
1
  0
SEQEND
  8
1
  0
ENDBLK
  8
0
  0
BLOCK
  8
0
  2
TRICONSMALL
 70
0
 10
0
 20
0
  0
POLYLINE
  8
1
 70
1
 66
1
 40
0.25
 41
0.25
  0
VERTEX
  8
1
 10
-0.125
 20
0
 42
1
  0
VERTEX
  8
1
 10
0.125
 20
0
 42
1
  0
SEQEND
  8
1
  0
ENDBLK
  8
0
  0
BLOCK
  8
0
  2
TRICONCIRCLE
 70
0
 10
0
 20
0
  0
CIRCLE
  8
1
 10
0
 20
0
 40
0.5
  0
ENDBLK
  8
0
  0
BLOCK
  8
0
  2
LCBP0
 70
0
 10
0
 20
0
  0
LINE
  8
1
 10
0
 20
-0.46875
 11
0
 21
0.46875
  0
ENDBLK
  8
0
  0
BLOCK
  8
0
  2
LCBP1
 70
0
 10
0
 20
0
  0
LINE
  8
1
 10
0
 20
-0.625
 11
0
 21
0.625
  0
ENDBLK
  8
0
  0
BLOCK
  8
0
  2
LCBP2
 70
0
 10
0
 20
0
  0
LINE
  8
1
 10
0
 20
-0.9375
 11
0
 21
0.9375
  0
ENDBLK
  8
0
  0
BLOCK
  8
0
  2
LCA1
 70
0
 10
0
 20
0
  0
SOLID
  8
1
 62
7 
 10
0
 20
0
 11
-1.4
 21
-0.275
 12
-1.4
 22
0.275
 13
-1.4
 23
0.275
  0
ENDBLK
  8
0
  0
BLOCK
  8
0
  2
LCA2
 70
0
 10
0
 20
0
  0
SOLID
  8
1
 62
7 
 10
0
 20
0
 11
-1.65
 21
-0.525
 12
-1.65
 22
0.525
 13
-1.65
 23
0.525
  0
ENDBLK
  8
0
  0
BLOCK
  8
0
  2
LCA3
 70
0
 10
0
 20
0
  0
SOLID
  8
1
 62
7 
 10
0
 20
0
 11
-2.15
 21
-1.15
 12
-2.15
 22
1.15
 13
-2.15
 23
1.15
  0
ENDBLK
  8
0
  0
BLOCK
  8
0
  2
LCA1R
 70
0
 10
0
 20
0
  0
SOLID
  8
1
 62
7 
 10
0
 20
0
 11
1.4
 21
-0.275
 12
1.4
 22
0.275
 13
1.4
 23
0.275
  0
ENDBLK
  8
0
  0
BLOCK
  8
0
  2
LCA2R
 70
0
 10
0
 20
0
  0
SOLID
  8
1
 62
7 
 10
0
 20
0
 11
1.65
 21
-0.525
 12
1.65
 22
0.525
 13
1.65
 23
0.525
  0
ENDBLK
  8
0
  0
BLOCK
  8
0
  2
LCA3R
 70
0
 10
0
 20
0
  0
SOLID
  8
1
 62
7 
 10
0
 20
0
 11
2.15
 21
-1.15
 12
2.15
 22
1.15
 13
2.15
 23
1.15
  0
ENDBLK
  8
0
  0
BLOCK
  8
0
  2
B124368_00991837
 70
0
 10
0
 20
0
  0
TEXT
  8
1
 40
2.475
 41
0.75
  1
110
  7
STANDARD
 72
2
 10
9.39851474761963
 20
4.55138370196025
 11
9.39851474761963
 21
4.55138370196025
  0
TEXT
  8
1
 40
2.475
 41
0.75
  1
12
  7
STANDARD
 73
2
 10
-35.4661715825399
 20
6.11388370196025
 11
-35.4661715825399
 21
6.11388370196025
  0
TEXT
  8
1
 40
2.475
 41
0.75
  1
2
  7
STANDARD
 72
2
 73
2
 10
24.2661715825399
 20
6.41388370196025
 11
24.2661715825399
 21
6.41388370196025
  0
TEXT
  8
1
 40
2.475
 41
0.75
  1
11
  7
STANDARD
 72
2
 73
2
 10
24.1661715825399
 20
-6.78611629803975
 11
24.1661715825399
 21
-6.78611629803975
  0
TEXT
  8
1
 40
2.475
 41
0.75
  1
33
  7
STANDARD
 73
2
 10
28.9661715825399
 20
-6.88611629803975
 11
28.9661715825399
 21
-6.88611629803975
  0
LINE
  8
1
 10
28.4661715825399
 20
-8.48611629803975
 11
28.4661715825399
 21
-4.48611629803975
  0
LINE
  8
1
 10
24.4661715825399
 20
3.51388370196025
 11
24.4661715825399
 21
7.51388370196025
  0
LINE
  8
1
 10
24.4661715825399
 20
-4.48611629803975
 11
24.4661715825399
 21
-8.48611629803975
  0
TEXT
  8
1
 40
2.475
 41
0.75
  1
1
  7
STANDARD
 72
2
 73
2
 10
-15.8338284174601
 20
-6.78611629803975
 11
-15.8338284174601
 21
-6.78611629803975
  0
TEXT
  8
1
 40
2.475
 41
0.75
  1
2
  7
STANDARD
 72
2
 73
2
 10
-15.6338284174601
 20
6.51388370196025
 11
-15.6338284174601
 21
6.51388370196025
  0
TEXT
  8
1
 40
2.475
 41
0.75
  1
3
  7
STANDARD
 73
2
 10
-10.9338284174601
 20
-6.78611629803975
 11
-10.9338284174601
 21
-6.78611629803975
  0
LINE
  8
1
 10
-11.5338284174601
 20
-8.48611629803975
 11
-11.5338284174601
 21
-4.48611629803975
  0
LINE
  8
1
 10
-15.5338284174601
 20
3.51388370196025
 11
-15.5338284174601
 21
7.51388370196025
  0
LINE
  8
1
 10
-15.5338284174601
 20
-4.48611629803975
 11
-15.5338284174601
 21
-8.48611629803975
  0
POLYLINE
  8
1
 66
1
  0
VERTEX
  8
1
 10
35.4661715825399
 20
-2.48611629803975
  0
VERTEX
  8
1
 10
35.0495049158732
 20
-4.48611629803975
  0
VERTEX
  8
1
 10
34.2161715825399
 20
-0.486116298039754
  0
VERTEX
  8
1
 10
33.3828382492066
 20
-4.48611629803975
  0
VERTEX
  8
1
 10
32.5495049158731
 20
-0.486116298039754
  0
VERTEX
  8
1
 10
31.7161715825399
 20
-4.48611629803975
  0
VERTEX
  8
1
 10
30.8828382492066
 20
-0.486116298039754
  0
VERTEX
  8
1
 10
30.4661715825399
 20
-2.48611629803975
  0
SEQEND
  8
1
  0
POLYLINE
  8
1
 66
1
  0
VERTEX
  8
1
 10
-4.53382841746012
 20
-2.48611629803975
  0
VERTEX
  8
1
 10
-4.95049508412685
 20
-4.48611629803975
  0
VERTEX
  8
1
 10
-5.78382841746012
 20
-0.486116298039754
  0
VERTEX
  8
1
 10
-6.61716175079337
 20
-4.48611629803975
  0
VERTEX
  8
1
 10
-7.45049508412688
 20
-0.486116298039754
  0
VERTEX
  8
1
 10
-8.28382841746012
 20
-4.48611629803975
  0
VERTEX
  8
1
 10
-9.11716175079337
 20
-0.486116298039754
  0
VERTEX
  8
1
 10
-9.53382841746012
 20
-2.48611629803975
  0
SEQEND
  8
1
  0
CIRCLE
  8
1
 10
7.32331252907464
 20
2.51391116657452
 40
1
  0
LINE
  8
1
 10
9.32331252907464
 20
-4.48608883342548
 11
7.59803365696665
 21
1.55238721895246
  0
LINE
  8
1
 10
14.4661715825399
 20
-3.48611629803975
 11
9.0376139374079
 21
-3.48611629803975
  0
LINE
  8
1
 10
11.4661715825399
 20
-0.486116298039754
 11
11.4661715825399
 21
1.51388370196025
  0
LINE
  8
1
 10
10.2161715825399
 20
-1.48611629803975
 11
8.46617751896444
 21
-1.48611629803975
  0
LINE
  8
1
 10
14.4661715825399
 20
-1.48611629803975
 11
12.7161715825399
 21
-1.48611629803975
  0
POLYLINE
  8
1
 66
1
  0
VERTEX
  8
1
 10
10.2161715825399
 20
-1.48611629803975
  0
VERTEX
  8
1
 10
10.7161715825399
 20
-1.48611629803975
  0
VERTEX
  8
1
 10
11.4661715825399
 20
-2.78515440371625
  0
VERTEX
  8
1
 10
12.2161715825399
 20
-1.48611629803975
  0
VERTEX
  8
1
 10
12.7161715825399
 20
-1.48611629803975
  0
SEQEND
  8
1
  0
CIRCLE
  8
1
 10
-32.6766874709254
 20
2.51391116657452
 40
1
  0
LINE
  8
1
 10
-30.6766874709254
 20
-4.48608883342548
 11
-32.4019663430333
 21
1.55238721895246
  0
LINE
  8
1
 10
-25.5338284174601
 20
-3.48611629803975
 11
-30.9623860625921
 21
-3.48611629803975
  0
LINE
  8
1
 10
-28.5338284174601
 20
-0.486116298039754
 11
-28.5338284174601
 21
1.51388370196025
  0
LINE
  8
1
 10
-29.7838284174601
 20
-1.48611629803975
 11
-31.5338224810356
 21
-1.48611629803975
  0
LINE
  8
1
 10
-25.5338284174601
 20
-1.48611629803975
 11
-27.2838284174601
 21
-1.48611629803975
  0
POLYLINE
  8
1
 66
1
  0
VERTEX
  8
1
 10
-29.7838284174601
 20
-1.48611629803975
  0
VERTEX
  8
1
 10
-29.2838284174601
 20
-1.48611629803975
  0
VERTEX
  8
1
 10
-28.5338284174601
 20
-2.78515440371625
  0
VERTEX
  8
1
 10
-27.7838284174601
 20
-1.48611629803975
  0
VERTEX
  8
1
 10
-27.2838284174601
 20
-1.48611629803975
  0
SEQEND
  8
1
  0
LINE
  8
1
 10
16.4661715825399
 20
-4.48611629803975
 11
16.4661715825399
 21
-2.48611629803975
  0
INSERT
  8
1
  2
LCBP1
 10
16.4661715825399
 20
-2.48611629803975
 50
90
  0
POLYLINE
  8
1
 66
1
  0
VERTEX
  8
1
 10
14.4661715825399
 20
3.51388370196025
  0
VERTEX
  8
1
 10
22.4661715825399
 20
3.51388370196025
  0
VERTEX
  8
1
 10
22.4661715825399
 20
-4.48611629803975
  0
VERTEX
  8
1
 10
14.4661715825399
 20
-4.48611629803975
  0
VERTEX
  8
1
 10
14.4661715825399
 20
3.51388370196025
  0
SEQEND
  8
1
  0
LINE
  8
1
 10
16.4661715825399
 20
3.51388370196025
 11
20.4661715825399
 21
-4.48611629803975
  0
INSERT
  8
1
  2
LCA1
 10
20.4661715825399
 20
-4.48611629803975
 50
-63.434948822922
  0
LINE
  8
1
 10
-15.5338284174601
 20
-4.48611629803975
 11
-15.5338284174601
 21
-2.48611629803975
  0
INSERT
  8
1
  2
LCBP1
 10
-15.5338284174601
 20
-2.48611629803975
 50
90
  0
POLYLINE
  8
1
 66
1
  0
VERTEX
  8
1
 10
-17.5338284174601
 20
3.51388370196025
  0
VERTEX
  8
1
 10
-9.53382841746012
 20
3.51388370196025
  0
VERTEX
  8
1
 10
-9.53382841746012
 20
-4.48611629803975
  0
VERTEX
  8
1
 10
-17.5338284174601
 20
-4.48611629803975
  0
VERTEX
  8
1
 10
-17.5338284174601
 20
3.51388370196025
  0
SEQEND
  8
1
  0
LINE
  8
1
 10
-15.5338284174601
 20
3.51388370196025
 11
-11.5338284174601
 21
-4.48611629803975
  0
INSERT
  8
1
  2
LCA1
 10
-11.5338284174601
 20
-4.48611629803975
 50
-63.434948822922
  0
POLYLINE
  8
1
 66
1
  0
VERTEX
  8
1
 10
22.4661715825399
 20
3.51388370196025
  0
VERTEX
  8
1
 10
30.4661715825399
 20
3.51388370196025
  0
VERTEX
  8
1
 10
30.4661715825399
 20
-4.48611629803975
  0
VERTEX
  8
1
 10
22.4661715825399
 20
-4.48611629803975
  0
VERTEX
  8
1
 10
22.4661715825399
 20
3.51388370196025
  0
SEQEND
  8
1
  0
LINE
  8
1
 10
28.4661715825399
 20
-4.48611629803975
 11
28.4661715825399
 21
-2.48611629803975
  0
INSERT
  8
1
  2
LCBP1
 10
28.4661715825399
 20
-2.48611629803975
 50
90
  0
LINE
  8
1
 10
24.4661715825399
 20
-4.48611629803975
 11
24.4661715825399
 21
3.51388370196025
  0
INSERT
  8
1
  2
LCA1
 10
24.4661715825399
 20
3.51388370196025
 50
90
  0
POLYLINE
  8
1
 66
1
  0
VERTEX
  8
1
 10
-25.5338284174601
 20
3.51388370196025
  0
VERTEX
  8
1
 10
-17.5338284174601
 20
3.51388370196025
  0
VERTEX
  8
1
 10
-17.5338284174601
 20
-4.48611629803975
  0
VERTEX
  8
1
 10
-25.5338284174601
 20
-4.48611629803975
  0
VERTEX
  8
1
 10
-25.5338284174601
 20
3.51388370196025
  0
SEQEND
  8
1
  0
LINE
  8
1
 10
-19.5338284174601
 20
-4.48611629803975
 11
-19.5338284174601
 21
-2.48611629803975
  0
INSERT
  8
1
  2
LCBP1
 10
-19.5338284174601
 20
-2.48611629803975
 50
90
  0
LINE
  8
1
 10
-23.5338284174601
 20
-4.48611629803975
 11
-23.5338284174601
 21
3.51388370196025
  0
INSERT
  8
1
  2
LCA1
 10
-23.5338284174601
 20
3.51388370196025
 50
90
  0
CIRCLE
  8
CONNECTIONS
 10
24.4661715825399
 20
-8.48611629803975
 40
0
  0
CIRCLE
  8
CONNECTIONS
 10
28.4661715825399
 20
-8.48611629803975
 40
0
  0
CIRCLE
  8
CONNECTIONS
 10
24.4661715825399
 20
7.51388370196025
 40
0
  0
CIRCLE
  8
CONNECTIONS
 10
-15.5338284174601
 20
-8.48611629803975
 40
0
  0
CIRCLE
  8
CONNECTIONS
 10
-11.5338284174601
 20
-8.48611629803975
 40
0
  0
CIRCLE
  8
CONNECTIONS
 10
-15.5338284174601
 20
7.51388370196025
 40
0
  0
ENDBLK
  8
0
  0
ENDSEC
  0
SECTION
  2
ENTITIES
  0
INSERT
  8
1
  2
B124368_00991837
 10
35.4661715825399
 20
8.48611629803975
  0
ENDSEC
  0
EOF
