  0
SECTION
  2
HEADER
  9
$LIMMIN
 10
0
 20
0
  9
$LIMMAX
 10
52.5
 20
74.25
  9
$EXTMIN
 10
0
 20
74.5332079008223
  9
$EXTMAX
 10
0
 20
16.9722326755524
  0
ENDSEC
  0
SECTION
  2
TABLES
  0
TABLE
  2
LTYPE
 70
9
  0
LTYPE
  2
CONTINUOUS
 70
64
  3
Solid line
 72
65
 73
0
 40
0
  0
LTYPE
  2
DASHED
 70
64
  3
__ __ __ __ __ __ __ __ __
 72
65
 73
2
 40
0.75
 49
0.5
 49
-0.25
  0
LTYPE
  2
DOT
 70
64
  3
...........................
 72
65
 73
2
 40
0.25
 49
0
 49
-0.25
  0
LTYPE
  2
DASHDOT
 70
64
  3
__ . __ . __ . __ . __ . __ . 
 72
65
 73
4
 40
1
 49
0.5
 49
-0.25
 49
0
 49
-0.25
  0
ENDTAB
  0
TABLE
  2
LAYER
 70
10
  0
LAYER
  2
1
 70
0
 62
7
  6
CONTINUOUS
  0
LAYER
  2
CONNECTIONS
 70
0
 62
-7
  6
CONTINUOUS
  0
ENDTAB
  0
ENDSEC
  0
SECTION
  2
BLOCKS
  0
BLOCK
  8
0
  2
TRICON
 70
0
 10
0
 20
0
  0
POLYLINE
  8
1
 70
1
 66
1
 40
0.5
 41
0.5
  0
VERTEX
  8
1
 10
-0.25
 20
0
 42
1
  0
VERTEX
  8
1
 10
0.25
 20
0
 42
1
  0
SEQEND
  8
1
  0
ENDBLK
  8
0
  0
BLOCK
  8
0
  2
TRICONSMALL
 70
0
 10
0
 20
0
  0
POLYLINE
  8
1
 70
1
 66
1
 40
0.25
 41
0.25
  0
VERTEX
  8
1
 10
-0.125
 20
0
 42
1
  0
VERTEX
  8
1
 10
0.125
 20
0
 42
1
  0
SEQEND
  8
1
  0
ENDBLK
  8
0
  0
BLOCK
  8
0
  2
TRICONCIRCLE
 70
0
 10
0
 20
0
  0
CIRCLE
  8
1
 10
0
 20
0
 40
0.5
  0
ENDBLK
  8
0
  0
BLOCK
  8
0
  2
LCBP0
 70
0
 10
0
 20
0
  0
LINE
  8
1
 10
0
 20
-0.46875
 11
0
 21
0.46875
  0
ENDBLK
  8
0
  0
BLOCK
  8
0
  2
LCBP1
 70
0
 10
0
 20
0
  0
LINE
  8
1
 10
0
 20
-0.625
 11
0
 21
0.625
  0
ENDBLK
  8
0
  0
BLOCK
  8
0
  2
LCBP2
 70
0
 10
0
 20
0
  0
LINE
  8
1
 10
0
 20
-0.9375
 11
0
 21
0.9375
  0
ENDBLK
  8
0
  0
BLOCK
  8
0
  2
LCA1
 70
0
 10
0
 20
0
  0
SOLID
  8
1
 62
7 
 10
0
 20
0
 11
-1.4
 21
-0.275
 12
-1.4
 22
0.275
 13
-1.4
 23
0.275
  0
ENDBLK
  8
0
  0
BLOCK
  8
0
  2
LCA2
 70
0
 10
0
 20
0
  0
SOLID
  8
1
 62
7 
 10
0
 20
0
 11
-1.65
 21
-0.525
 12
-1.65
 22
0.525
 13
-1.65
 23
0.525
  0
ENDBLK
  8
0
  0
BLOCK
  8
0
  2
LCA3
 70
0
 10
0
 20
0
  0
SOLID
  8
1
 62
7 
 10
0
 20
0
 11
-2.15
 21
-1.15
 12
-2.15
 22
1.15
 13
-2.15
 23
1.15
  0
ENDBLK
  8
0
  0
BLOCK
  8
0
  2
LCA1R
 70
0
 10
0
 20
0
  0
SOLID
  8
1
 62
7 
 10
0
 20
0
 11
1.4
 21
-0.275
 12
1.4
 22
0.275
 13
1.4
 23
0.275
  0
ENDBLK
  8
0
  0
BLOCK
  8
0
  2
LCA2R
 70
0
 10
0
 20
0
  0
SOLID
  8
1
 62
7 
 10
0
 20
0
 11
1.65
 21
-0.525
 12
1.65
 22
0.525
 13
1.65
 23
0.525
  0
ENDBLK
  8
0
  0
BLOCK
  8
0
  2
LCA3R
 70
0
 10
0
 20
0
  0
SOLID
  8
1
 62
7 
 10
0
 20
0
 11
2.15
 21
-1.15
 12
2.15
 22
1.15
 13
2.15
 23
1.15
  0
ENDBLK
  8
0
  0
BLOCK
  8
0
  2
B124280_00991833
 70
0
 10
0
 20
0
  0
TEXT
  8
1
 40
2.475
 41
0.75
  1
110
  7
STANDARD
 72
2
 10
11.1989471154909
 20
4.55138370196025
 11
11.1989471154909
 21
4.55138370196025
  0
TEXT
  8
1
 40
2.475
 41
0.75
  1
12
  7
STANDARD
 73
2
 10
-33.6657392146686
 20
6.11388370196025
 11
-33.6657392146686
 21
6.11388370196025
  0
TEXT
  8
1
 40
2.475
 41
0.75
  1
2
  7
STANDARD
 72
2
 73
2
 10
26.0666039504111
 20
6.41388370196025
 11
26.0666039504111
 21
6.41388370196025
  0
TEXT
  8
1
 40
2.475
 41
0.75
  1
11
  7
STANDARD
 72
2
 73
2
 10
25.9666039504111
 20
-6.78611629803975
 11
25.9666039504111
 21
-6.78611629803975
  0
TEXT
  8
1
 40
2.475
 41
0.75
  1
33
  7
STANDARD
 73
2
 10
30.7666039504111
 20
-6.88611629803975
 11
30.7666039504111
 21
-6.88611629803975
  0
LINE
  8
1
 10
30.2666039504111
 20
-8.48611629803975
 11
30.2666039504111
 21
-4.48611629803975
  0
LINE
  8
1
 10
26.2666039504111
 20
3.51388370196025
 11
26.2666039504111
 21
7.51388370196025
  0
LINE
  8
1
 10
26.2666039504111
 20
-4.48611629803975
 11
26.2666039504111
 21
-8.48611629803975
  0
TEXT
  8
1
 40
2.475
 41
0.75
  1
1
  7
STANDARD
 72
2
 73
2
 10
-14.0333960495889
 20
-6.78611629803975
 11
-14.0333960495889
 21
-6.78611629803975
  0
TEXT
  8
1
 40
2.475
 41
0.75
  1
2
  7
STANDARD
 72
2
 73
2
 10
-13.8333960495889
 20
6.51388370196025
 11
-13.8333960495889
 21
6.51388370196025
  0
TEXT
  8
1
 40
2.475
 41
0.75
  1
3
  7
STANDARD
 73
2
 10
-9.13339604958887
 20
-6.78611629803975
 11
-9.13339604958887
 21
-6.78611629803975
  0
LINE
  8
1
 10
-9.73339604958887
 20
-8.48611629803975
 11
-9.73339604958887
 21
-4.48611629803975
  0
LINE
  8
1
 10
-13.7333960495889
 20
3.51388370196025
 11
-13.7333960495889
 21
7.51388370196025
  0
LINE
  8
1
 10
-13.7333960495889
 20
-4.48611629803975
 11
-13.7333960495889
 21
-8.48611629803975
  0
LINE
  8
1
 10
8.55949716922459
 20
-3.1932230792263
 11
4.31685648210531
 21
1.04941760789298
  0
LINE
  8
1
 10
5.7310700444784
 20
2.46363117026608
 11
9.97371073159769
 21
-1.77900951685321
  0
POLYLINE
  8
1
 70
1
 66
1
 40
0.5
 41
0.5
  0
VERTEX
  8
1
 10
3.98339604958887
 20
2.54713329617694
 42
1
  0
VERTEX
  8
1
 10
4.48339604958887
 20
2.54713329617694
 42
1
  0
SEQEND
  8
1
  0
CIRCLE
  8
1
 10
4.23339604958887
 20
2.54713329617694
 40
1.5
  0
CIRCLE
  8
1
 10
9.26660395041113
 20
-2.48611629803975
 40
1
  0
ARC
  8
1
 10
9.26660395041113
 20
-2.48611629803975
 40
1
 50
90
 51
270
  0
LINE
  8
1
 10
9.26660395041113
 20
-1.48611629803975
 11
10.2666039504111
 21
-1.48611629803975
  0
LINE
  8
1
 10
10.2666039504111
 20
-3.48611629803975
 11
9.26660395041113
 21
-3.48611629803975
  0
LINE
  8
1
 10
16.2666039504111
 20
-3.48611629803975
 11
10.2666039504111
 21
-3.48611629803975
  0
LINE
  8
1
 10
10.2666039504111
 20
-1.48611629803975
 11
16.2666039504111
 21
-1.48611629803975
  0
LINE
  8
1
 10
-31.4405028307754
 20
-3.1932230792263
 11
-35.6831435178947
 21
1.04941760789298
  0
LINE
  8
1
 10
-34.2689299555216
 20
2.46363117026608
 11
-30.0262892684023
 21
-1.77900951685321
  0
POLYLINE
  8
1
 70
1
 66
1
 40
0.5
 41
0.5
  0
VERTEX
  8
1
 10
-36.0166039504111
 20
2.54713329617694
 42
1
  0
VERTEX
  8
1
 10
-35.5166039504111
 20
2.54713329617694
 42
1
  0
SEQEND
  8
1
  0
CIRCLE
  8
1
 10
-35.7666039504111
 20
2.54713329617694
 40
1.5
  0
CIRCLE
  8
1
 10
-30.7333960495889
 20
-2.48611629803975
 40
1
  0
ARC
  8
1
 10
-30.7333960495889
 20
-2.48611629803975
 40
1
 50
90
 51
270
  0
LINE
  8
1
 10
-30.7333960495889
 20
-1.48611629803975
 11
-29.7333960495889
 21
-1.48611629803975
  0
LINE
  8
1
 10
-29.7333960495889
 20
-3.48611629803975
 11
-30.7333960495889
 21
-3.48611629803975
  0
LINE
  8
1
 10
-23.7333960495889
 20
-3.48611629803975
 11
-29.7333960495889
 21
-3.48611629803975
  0
LINE
  8
1
 10
-29.7333960495889
 20
-1.48611629803975
 11
-23.7333960495889
 21
-1.48611629803975
  0
POLYLINE
  8
1
 66
1
  0
VERTEX
  8
1
 10
37.2666039504111
 20
-2.48611629803975
  0
VERTEX
  8
1
 10
36.8499372837444
 20
-4.48611629803975
  0
VERTEX
  8
1
 10
36.0166039504111
 20
-0.486116298039754
  0
VERTEX
  8
1
 10
35.1832706170779
 20
-4.48611629803975
  0
VERTEX
  8
1
 10
34.3499372837444
 20
-0.486116298039754
  0
VERTEX
  8
1
 10
33.5166039504111
 20
-4.48611629803975
  0
VERTEX
  8
1
 10
32.6832706170779
 20
-0.486116298039754
  0
VERTEX
  8
1
 10
32.2666039504111
 20
-2.48611629803975
  0
SEQEND
  8
1
  0
POLYLINE
  8
1
 66
1
  0
VERTEX
  8
1
 10
-2.73339604958887
 20
-2.48611629803975
  0
VERTEX
  8
1
 10
-3.15006271625559
 20
-4.48611629803975
  0
VERTEX
  8
1
 10
-3.98339604958887
 20
-0.486116298039754
  0
VERTEX
  8
1
 10
-4.81672938292212
 20
-4.48611629803975
  0
VERTEX
  8
1
 10
-5.65006271625562
 20
-0.486116298039754
  0
VERTEX
  8
1
 10
-6.48339604958887
 20
-4.48611629803975
  0
VERTEX
  8
1
 10
-7.31672938292211
 20
-0.486116298039754
  0
VERTEX
  8
1
 10
-7.73339604958887
 20
-2.48611629803975
  0
SEQEND
  8
1
  0
LINE
  8
1
 10
18.2666039504111
 20
-4.48611629803975
 11
18.2666039504111
 21
-2.48611629803975
  0
INSERT
  8
1
  2
LCBP1
 10
18.2666039504111
 20
-2.48611629803975
 50
90
  0
POLYLINE
  8
1
 66
1
  0
VERTEX
  8
1
 10
16.2666039504111
 20
3.51388370196025
  0
VERTEX
  8
1
 10
24.2666039504111
 20
3.51388370196025
  0
VERTEX
  8
1
 10
24.2666039504111
 20
-4.48611629803975
  0
VERTEX
  8
1
 10
16.2666039504111
 20
-4.48611629803975
  0
VERTEX
  8
1
 10
16.2666039504111
 20
3.51388370196025
  0
SEQEND
  8
1
  0
LINE
  8
1
 10
18.2666039504111
 20
3.51388370196025
 11
22.2666039504111
 21
-4.48611629803975
  0
INSERT
  8
1
  2
LCA1
 10
22.2666039504111
 20
-4.48611629803975
 50
-63.434948822922
  0
LINE
  8
1
 10
-13.7333960495889
 20
-4.48611629803975
 11
-13.7333960495889
 21
-2.48611629803975
  0
INSERT
  8
1
  2
LCBP1
 10
-13.7333960495889
 20
-2.48611629803975
 50
90
  0
POLYLINE
  8
1
 66
1
  0
VERTEX
  8
1
 10
-15.7333960495889
 20
3.51388370196025
  0
VERTEX
  8
1
 10
-7.73339604958887
 20
3.51388370196025
  0
VERTEX
  8
1
 10
-7.73339604958887
 20
-4.48611629803975
  0
VERTEX
  8
1
 10
-15.7333960495889
 20
-4.48611629803975
  0
VERTEX
  8
1
 10
-15.7333960495889
 20
3.51388370196025
  0
SEQEND
  8
1
  0
LINE
  8
1
 10
-13.7333960495889
 20
3.51388370196025
 11
-9.73339604958887
 21
-4.48611629803975
  0
INSERT
  8
1
  2
LCA1
 10
-9.73339604958887
 20
-4.48611629803975
 50
-63.434948822922
  0
POLYLINE
  8
1
 66
1
  0
VERTEX
  8
1
 10
24.2666039504111
 20
3.51388370196025
  0
VERTEX
  8
1
 10
32.2666039504111
 20
3.51388370196025
  0
VERTEX
  8
1
 10
32.2666039504111
 20
-4.48611629803975
  0
VERTEX
  8
1
 10
24.2666039504111
 20
-4.48611629803975
  0
VERTEX
  8
1
 10
24.2666039504111
 20
3.51388370196025
  0
SEQEND
  8
1
  0
LINE
  8
1
 10
30.2666039504111
 20
-4.48611629803975
 11
30.2666039504111
 21
-2.48611629803975
  0
INSERT
  8
1
  2
LCBP1
 10
30.2666039504111
 20
-2.48611629803975
 50
90
  0
LINE
  8
1
 10
26.2666039504111
 20
-4.48611629803975
 11
26.2666039504111
 21
3.51388370196025
  0
INSERT
  8
1
  2
LCA1
 10
26.2666039504111
 20
3.51388370196025
 50
90
  0
POLYLINE
  8
1
 66
1
  0
VERTEX
  8
1
 10
-23.7333960495889
 20
3.51388370196025
  0
VERTEX
  8
1
 10
-15.7333960495889
 20
3.51388370196025
  0
VERTEX
  8
1
 10
-15.7333960495889
 20
-4.48611629803975
  0
VERTEX
  8
1
 10
-23.7333960495889
 20
-4.48611629803975
  0
VERTEX
  8
1
 10
-23.7333960495889
 20
3.51388370196025
  0
SEQEND
  8
1
  0
LINE
  8
1
 10
-17.7333960495889
 20
-4.48611629803975
 11
-17.7333960495889
 21
-2.48611629803975
  0
INSERT
  8
1
  2
LCBP1
 10
-17.7333960495889
 20
-2.48611629803975
 50
90
  0
LINE
  8
1
 10
-21.7333960495889
 20
-4.48611629803975
 11
-21.7333960495889
 21
3.51388370196025
  0
INSERT
  8
1
  2
LCA1
 10
-21.7333960495889
 20
3.51388370196025
 50
90
  0
CIRCLE
  8
CONNECTIONS
 10
26.2666039504111
 20
-8.48611629803975
 40
0
  0
CIRCLE
  8
CONNECTIONS
 10
30.2666039504111
 20
-8.48611629803975
 40
0
  0
CIRCLE
  8
CONNECTIONS
 10
26.2666039504111
 20
7.51388370196025
 40
0
  0
CIRCLE
  8
CONNECTIONS
 10
-13.7333960495889
 20
-8.48611629803975
 40
0
  0
CIRCLE
  8
CONNECTIONS
 10
-9.73339604958887
 20
-8.48611629803975
 40
0
  0
CIRCLE
  8
CONNECTIONS
 10
-13.7333960495889
 20
7.51388370196025
 40
0
  0
ENDBLK
  8
0
  0
ENDSEC
  0
SECTION
  2
ENTITIES
  0
INSERT
  8
1
  2
B124280_00991833
 10
37.2666039504111
 20
8.48611629803975
  0
ENDSEC
  0
EOF
