  0
SECTION
  2
HEADER
  9
$LIMMIN
 10
0
 20
0
  9
$LIMMAX
 10
52.5
 20
74.25
  9
$EXTMIN
 10
0
 20
107.1
  9
$EXTMAX
 10
0
 20
26
  0
ENDSEC
  0
SECTION
  2
TABLES
  0
TABLE
  2
LTYPE
 70
9
  0
LTYPE
  2
CONTINUOUS
 70
64
  3
Solid line
 72
65
 73
0
 40
0
  0
LTYPE
  2
DASHED
 70
64
  3
__ __ __ __ __ __ __ __ __
 72
65
 73
2
 40
0.75
 49
0.5
 49
-0.25
  0
LTYPE
  2
DOT
 70
64
  3
...........................
 72
65
 73
2
 40
0.25
 49
0
 49
-0.25
  0
LTYPE
  2
DASHDOT
 70
64
  3
__ . __ . __ . __ . __ . __ . 
 72
65
 73
4
 40
1
 49
0.5
 49
-0.25
 49
0
 49
-0.25
  0
ENDTAB
  0
TABLE
  2
LAYER
 70
10
  0
LAYER
  2
1
 70
0
 62
7
  6
CONTINUOUS
  0
LAYER
  2
CONNECTIONS
 70
0
 62
-7
  6
CONTINUOUS
  0
ENDTAB
  0
ENDSEC
  0
SECTION
  2
BLOCKS
  0
BLOCK
  8
0
  2
TRICON
 70
0
 10
0
 20
0
  0
POLYLINE
  8
1
 70
1
 66
1
 40
0.5
 41
0.5
  0
VERTEX
  8
1
 10
-0.25
 20
0
 42
1
  0
VERTEX
  8
1
 10
0.25
 20
0
 42
1
  0
SEQEND
  8
1
  0
ENDBLK
  8
0
  0
BLOCK
  8
0
  2
TRICONSMALL
 70
0
 10
0
 20
0
  0
POLYLINE
  8
1
 70
1
 66
1
 40
0.25
 41
0.25
  0
VERTEX
  8
1
 10
-0.125
 20
0
 42
1
  0
VERTEX
  8
1
 10
0.125
 20
0
 42
1
  0
SEQEND
  8
1
  0
ENDBLK
  8
0
  0
BLOCK
  8
0
  2
TRICONCIRCLE
 70
0
 10
0
 20
0
  0
CIRCLE
  8
1
 10
0
 20
0
 40
0.5
  0
ENDBLK
  8
0
  0
BLOCK
  8
0
  2
LCBP0
 70
0
 10
0
 20
0
  0
LINE
  8
1
 10
0
 20
-0.46875
 11
0
 21
0.46875
  0
ENDBLK
  8
0
  0
BLOCK
  8
0
  2
LCBP1
 70
0
 10
0
 20
0
  0
LINE
  8
1
 10
0
 20
-0.625
 11
0
 21
0.625
  0
ENDBLK
  8
0
  0
BLOCK
  8
0
  2
LCBP2
 70
0
 10
0
 20
0
  0
LINE
  8
1
 10
0
 20
-0.9375
 11
0
 21
0.9375
  0
ENDBLK
  8
0
  0
BLOCK
  8
0
  2
LCA1
 70
0
 10
0
 20
0
  0
SOLID
  8
1
 62
7 
 10
0
 20
0
 11
-1.4
 21
-0.275
 12
-1.4
 22
0.275
 13
-1.4
 23
0.275
  0
ENDBLK
  8
0
  0
BLOCK
  8
0
  2
LCA2
 70
0
 10
0
 20
0
  0
SOLID
  8
1
 62
7 
 10
0
 20
0
 11
-1.65
 21
-0.525
 12
-1.65
 22
0.525
 13
-1.65
 23
0.525
  0
ENDBLK
  8
0
  0
BLOCK
  8
0
  2
LCA3
 70
0
 10
0
 20
0
  0
SOLID
  8
1
 62
7 
 10
0
 20
0
 11
-2.15
 21
-1.15
 12
-2.15
 22
1.15
 13
-2.15
 23
1.15
  0
ENDBLK
  8
0
  0
BLOCK
  8
0
  2
LCA1R
 70
0
 10
0
 20
0
  0
SOLID
  8
1
 62
7 
 10
0
 20
0
 11
1.4
 21
-0.275
 12
1.4
 22
0.275
 13
1.4
 23
0.275
  0
ENDBLK
  8
0
  0
BLOCK
  8
0
  2
LCA2R
 70
0
 10
0
 20
0
  0
SOLID
  8
1
 62
7 
 10
0
 20
0
 11
1.65
 21
-0.525
 12
1.65
 22
0.525
 13
1.65
 23
0.525
  0
ENDBLK
  8
0
  0
BLOCK
  8
0
  2
LCA3R
 70
0
 10
0
 20
0
  0
SOLID
  8
1
 62
7 
 10
0
 20
0
 11
2.15
 21
-1.15
 12
2.15
 22
1.15
 13
2.15
 23
1.15
  0
ENDBLK
  8
0
  0
BLOCK
  8
0
  2
B163853_00991831
 70
0
 10
0
 20
0
  0
TEXT
  8
1
 40
2.4
 41
0.75
  1
3/2
  7
STANDARD
 72
1
 73
2
 10
9.14876505533854
 20
-10
 11
9.14876505533854
 21
-10
  0
TEXT
  8
1
 40
2.4
 41
0.75
  1
5/2
  7
STANDARD
 72
1
 73
2
 10
-48.1655601183573
 20
-10
 11
-48.1655601183573
 21
-10
  0
TEXT
  8
1
 40
2.4
 41
0.75
  1
12
  7
STANDARD
 73
2
 10
4.55
 20
5
 11
4.55
 21
5
  0
TEXT
  8
1
 40
2.4
 41
0.75
  1
12
  7
STANDARD
 73
2
 10
-53.55
 20
5
 11
-53.55
 21
5
  0
TEXT
  8
1
 40
2.4
 41
0.75
  1
2
  7
STANDARD
 72
1
 10
28.9475314458211
 20
11.055534807841
 11
28.9475314458211
 21
11.055534807841
  0
TEXT
  8
1
 40
2.4
 41
0.75
  1
2
  7
STANDARD
 72
1
 10
-29.0524685541789
 20
11.055534807841
 11
-29.0524685541789
 21
11.055534807841
  0
TEXT
  8
1
 40
2.4
 41
0.75
  1
4
  7
STANDARD
 72
1
 10
-15.0709870020549
 20
11.055534807841
 11
-15.0709870020549
 21
11.055534807841
  0
TEXT
  8
1
 40
2.4
 41
0.75
  1
4
  7
STANDARD
 72
1
 10
44.9290129979451
 20
11.055534807841
 11
44.9290129979451
 21
11.055534807841
  0
TEXT
  8
1
 40
2.4
 41
0.75
  1
1
  7
STANDARD
 72
2
 10
35.7524685541789
 20
-13.8
 11
35.7524685541789
 21
-13.8
  0
TEXT
  8
1
 40
2.4
 41
0.75
  1
1
  7
STANDARD
 72
2
 10
-22.45
 20
-13.8
 11
-22.45
 21
-13.8
  0
TEXT
  8
1
 40
2.4
 41
0.75
  1
3
  7
STANDARD
 72
2
 10
-27.45
 20
-13.8
 11
-27.45
 21
-13.8
  0
TEXT
  8
1
 40
2.4
 41
0.75
  1
5
  7
STANDARD
 10
-17.8549371083578
 20
-13.8
  0
TEXT
  8
1
 40
2.4
 41
0.75
  1
5
  7
STANDARD
 10
40.1450628916422
 20
-13.8
  0
TEXT
  8
1
 40
2.4
 41
0.75
  1
3
  7
STANDARD
 72
1
 10
29.3475314458211
 20
-13.8
 11
29.3475314458211
 21
-13.8
  0
LINE
  8
1
 10
31.55
 20
-9
 11
31.55
 21
-13
  0
LINE
  8
1
 10
35.55
 20
-9
 11
35.55
 21
-13
  0
LINE
  8
1
 10
39.55
 20
-9
 11
39.55
 21
-13
  0
LINE
  8
1
 10
31.55
 20
9
 11
31.55
 21
13
  0
LINE
  8
1
 10
47.55
 20
9
 11
47.55
 21
13
  0
LINE
  8
1
 10
-18.45
 20
-9
 11
-18.45
 21
-13
  0
LINE
  8
1
 10
-22.45
 20
-9
 11
-22.45
 21
-13
  0
LINE
  8
1
 10
-26.45
 20
-9
 11
-26.45
 21
-13
  0
LINE
  8
1
 10
-12.45
 20
9
 11
-12.45
 21
13
  0
LINE
  8
1
 10
-26.45
 20
9
 11
-26.45
 21
13
  0
LINE
  8
1
 10
49.55
 20
7
 11
53.55
 21
7
  0
LINE
  8
1
 10
-8.45
 20
7
 11
-4.45
 21
7
  0
LINE
  8
1
 10
31.55
 20
3
 11
31.55
 21
9
  0
LINE
  8
1
 10
39.55
 20
-5
 11
39.55
 21
-9
  0
LINE
  8
1
 10
35.55
 20
-5
 11
35.55
 21
-9
  0
LINE
  8
1
 10
31.55
 20
-5
 11
31.55
 21
-9
  0
LINE
  8
1
 10
-26.45
 20
3
 11
-26.45
 21
9
  0
LINE
  8
1
 10
-18.45
 20
-5
 11
-18.45
 21
-9
  0
LINE
  8
1
 10
-22.45
 20
-5
 11
-22.45
 21
-9
  0
LINE
  8
1
 10
-26.45
 20
-5
 11
-26.45
 21
-9
  0
LINE
  8
1
 10
39.55
 20
7
 11
43.55
 21
7
  0
POLYLINE
  8
1
 70
1
 66
1
 40
0.6
 41
0.6
  0
VERTEX
  8
1
 10
31.25
 20
-9
 42
1
  0
VERTEX
  8
1
 10
31.85
 20
-9
 42
1
  0
SEQEND
  8
1
  0
LINE
  8
1
 10
53.55
 20
-9
 11
31.55
 21
-9
  0
LINE
  8
1
 10
53.55
 20
7
 11
53.55
 21
-9
  0
LINE
  8
1
 10
39.55
 20
3
 11
39.55
 21
7
  0
LINE
  8
1
 10
-18.45
 20
7
 11
-14.45
 21
7
  0
POLYLINE
  8
1
 70
1
 66
1
 40
0.6
 41
0.6
  0
VERTEX
  8
1
 10
-26.75
 20
-9
 42
1
  0
VERTEX
  8
1
 10
-26.15
 20
-9
 42
1
  0
SEQEND
  8
1
  0
LINE
  8
1
 10
-4.45
 20
-9
 11
-26.45
 21
-9
  0
LINE
  8
1
 10
-4.45
 20
7
 11
-4.45
 21
-9
  0
LINE
  8
1
 10
-18.45
 20
3
 11
-18.45
 21
7
  0
LINE
  8
1
 10
7.55
 20
-5
 11
9.55
 21
-1
  0
POLYLINE
  8
1
 66
1
  0
VERTEX
  8
1
 10
5.55
 20
-1
  0
VERTEX
  8
1
 10
11.55
 20
-1
  0
VERTEX
  8
1
 10
11.55
 20
-5
  0
VERTEX
  8
1
 10
5.55
 20
-5
  0
VERTEX
  8
1
 10
5.55
 20
-1
  0
SEQEND
  8
1
  0
LINE
  8
1
 10
-50.45
 20
-5
 11
-48.45
 21
-1
  0
POLYLINE
  8
1
 66
1
  0
VERTEX
  8
1
 10
-52.45
 20
-1
  0
VERTEX
  8
1
 10
-46.45
 20
-1
  0
VERTEX
  8
1
 10
-46.45
 20
-5
  0
VERTEX
  8
1
 10
-52.45
 20
-5
  0
VERTEX
  8
1
 10
-52.45
 20
-1
  0
SEQEND
  8
1
  0
POLYLINE
  8
1
 66
1
  0
VERTEX
  8
1
 10
46.55
 20
-3
  0
VERTEX
  8
1
 10
46.1333333333332
 20
-5
  0
VERTEX
  8
1
 10
45.3
 20
-1
  0
VERTEX
  8
1
 10
44.4666666666668
 20
-5
  0
VERTEX
  8
1
 10
43.6333333333332
 20
-1
  0
VERTEX
  8
1
 10
42.8
 20
-5
  0
VERTEX
  8
1
 10
41.9666666666667
 20
-1
  0
VERTEX
  8
1
 10
41.55
 20
-3
  0
SEQEND
  8
1
  0
POLYLINE
  8
1
 66
1
  0
VERTEX
  8
1
 10
-11.45
 20
-3
  0
VERTEX
  8
1
 10
-11.8666666666668
 20
-5
  0
VERTEX
  8
1
 10
-12.7
 20
-1
  0
VERTEX
  8
1
 10
-13.5333333333332
 20
-5
  0
VERTEX
  8
1
 10
-14.3666666666668
 20
-1
  0
VERTEX
  8
1
 10
-15.2
 20
-5
  0
VERTEX
  8
1
 10
-16.0333333333333
 20
-1
  0
VERTEX
  8
1
 10
-16.45
 20
-3
  0
SEQEND
  8
1
  0
POLYLINE
  8
1
 66
1
  0
VERTEX
  8
1
 10
49.55
 20
7
  0
VERTEX
  8
1
 10
47.55
 20
7
  0
VERTEX
  8
1
 10
47.55
 20
11
  0
SEQEND
  8
1
  0
LINE
  8
1
 10
43.55
 20
7
 11
45.55
 21
7
  0
INSERT
  8
1
  2
LCBP1
 10
45.55
 20
7
 50
0
  0
POLYLINE
  8
1
 66
1
  0
VERTEX
  8
1
 10
43.55
 20
9
  0
VERTEX
  8
1
 10
49.55
 20
9
  0
VERTEX
  8
1
 10
49.55
 20
5
  0
VERTEX
  8
1
 10
43.55
 20
5
  0
VERTEX
  8
1
 10
43.55
 20
9
  0
SEQEND
  8
1
  0
POLYLINE
  8
1
 66
1
  0
VERTEX
  8
1
 10
-14.45
 20
7
  0
VERTEX
  8
1
 10
-12.45
 20
7
  0
VERTEX
  8
1
 10
-12.45
 20
11
  0
SEQEND
  8
1
  0
LINE
  8
1
 10
-8.45
 20
7
 11
-10.45
 21
7
  0
INSERT
  8
1
  2
LCBP1
 10
-10.45
 20
7
 50
-180
  0
POLYLINE
  8
1
 66
1
  0
VERTEX
  8
1
 10
-14.45
 20
9
  0
VERTEX
  8
1
 10
-8.45
 20
9
  0
VERTEX
  8
1
 10
-8.45
 20
5
  0
VERTEX
  8
1
 10
-14.45
 20
5
  0
VERTEX
  8
1
 10
-14.45
 20
9
  0
SEQEND
  8
1
  0
LINE
  8
1
 10
11.55
 20
-1
 11
11.55
 21
-5
  0
POLYLINE
  8
1
 66
1
  0
VERTEX
  8
1
 10
11.55
 20
-1
  0
VERTEX
  8
1
 10
17.55
 20
-1
  0
VERTEX
  8
1
 10
17.55
 20
-5
  0
VERTEX
  8
1
 10
11.55
 20
-5
  0
VERTEX
  8
1
 10
11.55
 20
-1
  0
SEQEND
  8
1
  0
LINE
  8
1
 10
11.55
 20
-1
 11
15.0141016151378
 21
-3
  0
LINE
  8
1
 10
11.55
 20
-5
 11
15.0141016151378
 21
-3
  0
LINE
  8
1
 10
-46.45
 20
-1
 11
-46.45
 21
-5
  0
POLYLINE
  8
1
 66
1
  0
VERTEX
  8
1
 10
-46.45
 20
-1
  0
VERTEX
  8
1
 10
-40.45
 20
-1
  0
VERTEX
  8
1
 10
-40.45
 20
-5
  0
VERTEX
  8
1
 10
-46.45
 20
-5
  0
VERTEX
  8
1
 10
-46.45
 20
-1
  0
SEQEND
  8
1
  0
LINE
  8
1
 10
-46.45
 20
-1
 11
-42.9858983848623
 21
-3
  0
LINE
  8
1
 10
-46.45
 20
-5
 11
-42.9858983848623
 21
-3
  0
LINE
  8
1
 10
7.55
 20
2.5
 11
11.55
 21
2.5
  0
LINE
  8
1
 10
7.55
 20
3
 11
7.55
 21
0
  0
LINE
  8
1
 10
7.55
 20
0.5
 11
11.55
 21
0.5
  0
LINE
  8
1
 10
11.55
 20
-1
 11
11.55
 21
3
  0
LINE
  8
1
 10
-50.45
 20
2.5
 11
-46.45
 21
2.5
  0
LINE
  8
1
 10
-50.45
 20
3
 11
-50.45
 21
0
  0
LINE
  8
1
 10
-50.45
 20
0.5
 11
-46.45
 21
0.5
  0
LINE
  8
1
 10
-46.45
 20
-1
 11
-46.45
 21
3
  0
LINE
  8
1
 10
19.55
 20
-5
 11
19.55
 21
-3
  0
INSERT
  8
1
  2
LCBP1
 10
19.55
 20
-3
 50
90
  0
POLYLINE
  8
1
 66
1
  0
VERTEX
  8
1
 10
17.55
 20
3
  0
VERTEX
  8
1
 10
29.55
 20
3
  0
VERTEX
  8
1
 10
29.55
 20
-5
  0
VERTEX
  8
1
 10
17.55
 20
-5
  0
VERTEX
  8
1
 10
17.55
 20
3
  0
SEQEND
  8
1
  0
LINE
  8
1
 10
27.55
 20
3
 11
27.55
 21
-5
  0
INSERT
  8
1
  2
LCA1
 10
27.55
 20
-5
 50
-90
  0
LINE
  8
1
 10
23.55
 20
-5
 11
19.55
 21
3
  0
INSERT
  8
1
  2
LCA1
 10
19.55
 20
3
 50
116.565051177078
  0
LINE
  8
1
 10
-38.45
 20
-5
 11
-38.45
 21
-3
  0
INSERT
  8
1
  2
LCBP1
 10
-38.45
 20
-3
 50
90
  0
POLYLINE
  8
1
 66
1
  0
VERTEX
  8
1
 10
-40.45
 20
3
  0
VERTEX
  8
1
 10
-28.45
 20
3
  0
VERTEX
  8
1
 10
-28.45
 20
-5
  0
VERTEX
  8
1
 10
-40.45
 20
-5
  0
VERTEX
  8
1
 10
-40.45
 20
3
  0
SEQEND
  8
1
  0
LINE
  8
1
 10
-30.45
 20
3
 11
-30.45
 21
-5
  0
INSERT
  8
1
  2
LCA1
 10
-30.45
 20
-5
 50
-90
  0
LINE
  8
1
 10
-34.45
 20
-5
 11
-38.45
 21
3
  0
INSERT
  8
1
  2
LCA1
 10
-38.45
 20
3
 50
116.565051177078
  0
LINE
  8
1
 10
39.55
 20
-5
 11
39.55
 21
-3
  0
INSERT
  8
1
  2
LCBP1
 10
39.55
 20
-3
 50
90
  0
POLYLINE
  8
1
 66
1
  0
VERTEX
  8
1
 10
29.55
 20
3
  0
VERTEX
  8
1
 10
41.55
 20
3
  0
VERTEX
  8
1
 10
41.55
 20
-5
  0
VERTEX
  8
1
 10
29.55
 20
-5
  0
VERTEX
  8
1
 10
29.55
 20
3
  0
SEQEND
  8
1
  0
LINE
  8
1
 10
31.55
 20
3
 11
31.55
 21
-5
  0
INSERT
  8
1
  2
LCA1
 10
31.55
 20
-5
 50
-90
  0
LINE
  8
1
 10
35.55
 20
-5
 11
39.55
 21
3
  0
INSERT
  8
1
  2
LCA1
 10
39.55
 20
3
 50
63.434948822922
  0
LINE
  8
1
 10
-18.45
 20
-5
 11
-18.45
 21
-3
  0
INSERT
  8
1
  2
LCBP1
 10
-18.45
 20
-3
 50
90
  0
POLYLINE
  8
1
 66
1
  0
VERTEX
  8
1
 10
-28.45
 20
3
  0
VERTEX
  8
1
 10
-16.45
 20
3
  0
VERTEX
  8
1
 10
-16.45
 20
-5
  0
VERTEX
  8
1
 10
-28.45
 20
-5
  0
VERTEX
  8
1
 10
-28.45
 20
3
  0
SEQEND
  8
1
  0
LINE
  8
1
 10
-26.45
 20
3
 11
-26.45
 21
-5
  0
INSERT
  8
1
  2
LCA1
 10
-26.45
 20
-5
 50
-90
  0
LINE
  8
1
 10
-22.45
 20
-5
 11
-18.45
 21
3
  0
INSERT
  8
1
  2
LCA1
 10
-18.45
 20
3
 50
63.434948822922
  0
CIRCLE
  8
CONNECTIONS
 10
-26.45
 20
-13
 40
0
  0
CIRCLE
  8
CONNECTIONS
 10
-22.45
 20
-13
 40
0
  0
CIRCLE
  8
CONNECTIONS
 10
-18.45
 20
-13
 40
0
  0
CIRCLE
  8
CONNECTIONS
 10
-26.45
 20
13
 40
0
  0
CIRCLE
  8
CONNECTIONS
 10
-12.45
 20
13
 40
0
  0
CIRCLE
  8
CONNECTIONS
 10
31.55
 20
13
 40
0
  0
CIRCLE
  8
CONNECTIONS
 10
47.55
 20
13
 40
0
  0
CIRCLE
  8
CONNECTIONS
 10
31.55
 20
-13
 40
0
  0
CIRCLE
  8
CONNECTIONS
 10
35.55
 20
-13
 40
0
  0
CIRCLE
  8
CONNECTIONS
 10
39.55
 20
-13
 40
0
  0
CIRCLE
  8
CONNECTIONS
 10
5.55
 20
-3
 40
0
  0
CIRCLE
  8
CONNECTIONS
 10
-52.45
 20
-3
 40
0
  0
ENDBLK
  8
0
  0
ENDSEC
  0
SECTION
  2
ENTITIES
  0
INSERT
  8
1
  2
B163853_00991831
 10
53.55
 20
13
  0
ENDSEC
  0
EOF
