  0
SECTION
  2
HEADER
  9
$LIMMIN
 10
0
 20
0
  9
$LIMMAX
 10
52.5
 20
74.25
  9
$EXTMIN
 10
0
 20
86
  9
$EXTMAX
 10
0
 20
30
  0
ENDSEC
  0
SECTION
  2
TABLES
  0
TABLE
  2
LTYPE
 70
9
  0
LTYPE
  2
CONTINUOUS
 70
64
  3
Solid line
 72
65
 73
0
 40
0
  0
LTYPE
  2
DASHED
 70
64
  3
__ __ __ __ __ __ __ __ __
 72
65
 73
2
 40
0.75
 49
0.5
 49
-0.25
  0
LTYPE
  2
DOT
 70
64
  3
...........................
 72
65
 73
2
 40
0.25
 49
0
 49
-0.25
  0
LTYPE
  2
DASHDOT
 70
64
  3
__ . __ . __ . __ . __ . __ . 
 72
65
 73
4
 40
1
 49
0.5
 49
-0.25
 49
0
 49
-0.25
  0
ENDTAB
  0
TABLE
  2
LAYER
 70
10
  0
LAYER
  2
1
 70
0
 62
7
  6
CONTINUOUS
  0
LAYER
  2
CONNECTIONS
 70
0
 62
-7
  6
CONTINUOUS
  0
ENDTAB
  0
ENDSEC
  0
SECTION
  2
BLOCKS
  0
BLOCK
  8
0
  2
TRICON
 70
0
 10
0
 20
0
  0
POLYLINE
  8
1
 70
1
 66
1
 40
0.5
 41
0.5
  0
VERTEX
  8
1
 10
-0.25
 20
0
 42
1
  0
VERTEX
  8
1
 10
0.25
 20
0
 42
1
  0
SEQEND
  8
1
  0
ENDBLK
  8
0
  0
BLOCK
  8
0
  2
TRICONSMALL
 70
0
 10
0
 20
0
  0
POLYLINE
  8
1
 70
1
 66
1
 40
0.25
 41
0.25
  0
VERTEX
  8
1
 10
-0.125
 20
0
 42
1
  0
VERTEX
  8
1
 10
0.125
 20
0
 42
1
  0
SEQEND
  8
1
  0
ENDBLK
  8
0
  0
BLOCK
  8
0
  2
TRICONCIRCLE
 70
0
 10
0
 20
0
  0
CIRCLE
  8
1
 10
0
 20
0
 40
0.5
  0
ENDBLK
  8
0
  0
BLOCK
  8
0
  2
LCBP0
 70
0
 10
0
 20
0
  0
LINE
  8
1
 10
0
 20
-0.46875
 11
0
 21
0.46875
  0
ENDBLK
  8
0
  0
BLOCK
  8
0
  2
LCBP1
 70
0
 10
0
 20
0
  0
LINE
  8
1
 10
0
 20
-0.625
 11
0
 21
0.625
  0
ENDBLK
  8
0
  0
BLOCK
  8
0
  2
LCBP2
 70
0
 10
0
 20
0
  0
LINE
  8
1
 10
0
 20
-0.9375
 11
0
 21
0.9375
  0
ENDBLK
  8
0
  0
BLOCK
  8
0
  2
LCA1
 70
0
 10
0
 20
0
  0
SOLID
  8
1
 62
7 
 10
0
 20
0
 11
-1.4
 21
-0.275
 12
-1.4
 22
0.275
 13
-1.4
 23
0.275
  0
ENDBLK
  8
0
  0
BLOCK
  8
0
  2
LCA2
 70
0
 10
0
 20
0
  0
SOLID
  8
1
 62
7 
 10
0
 20
0
 11
-1.65
 21
-0.525
 12
-1.65
 22
0.525
 13
-1.65
 23
0.525
  0
ENDBLK
  8
0
  0
BLOCK
  8
0
  2
LCA3
 70
0
 10
0
 20
0
  0
SOLID
  8
1
 62
7 
 10
0
 20
0
 11
-2.15
 21
-1.15
 12
-2.15
 22
1.15
 13
-2.15
 23
1.15
  0
ENDBLK
  8
0
  0
BLOCK
  8
0
  2
LCA1R
 70
0
 10
0
 20
0
  0
SOLID
  8
1
 62
7 
 10
0
 20
0
 11
1.4
 21
-0.275
 12
1.4
 22
0.275
 13
1.4
 23
0.275
  0
ENDBLK
  8
0
  0
BLOCK
  8
0
  2
LCA2R
 70
0
 10
0
 20
0
  0
SOLID
  8
1
 62
7 
 10
0
 20
0
 11
1.65
 21
-0.525
 12
1.65
 22
0.525
 13
1.65
 23
0.525
  0
ENDBLK
  8
0
  0
BLOCK
  8
0
  2
LCA3R
 70
0
 10
0
 20
0
  0
SOLID
  8
1
 62
7 
 10
0
 20
0
 11
2.15
 21
-1.15
 12
2.15
 22
1.15
 13
2.15
 23
1.15
  0
ENDBLK
  8
0
  0
BLOCK
  8
0
  2
B90054_00991813
 70
0
 10
0
 20
0
  0
POLYLINE
  8
1
 66
1
  0
VERTEX
  8
1
 10
-43
 20
11
  0
VERTEX
  8
1
 10
43
 20
11
  0
VERTEX
  8
1
 10
43
 20
-11
  0
VERTEX
  8
1
 10
-43
 20
-11
  0
VERTEX
  8
1
 10
-43
 20
11
  0
SEQEND
  8
1
  0
LINE
  8
1
 10
31
 20
-1
 11
31
 21
-11
  0
LINE
  8
1
 10
-13
 20
-1
 11
-13
 21
-11
  0
LINE
  8
1
 10
-17
 20
-1
 11
-17
 21
-11
  0
LINE
  8
1
 10
-29
 20
-1
 11
-29
 21
-11
  0
LINE
  8
1
 10
-33
 20
-1
 11
-33
 21
-11
  0
LINE
  8
1
 10
27
 20
11
 11
27
 21
7
  0
LINE
  8
1
 10
-17
 20
7
 11
-17
 21
11
  0
LINE
  8
1
  6
DOT
 10
-27
 20
-6.98111412493422
 11
11
 21
-7
  0
LINE
  8
1
  6
DOT
 10
15
 20
-5
 11
-25
 21
-4.98111412493422
  0
LINE
  8
1
  6
DOT
 10
13
 20
-3.01888587506578
 11
-15
 21
-2.98111412493422
  0
LINE
  8
1
  6
DOT
 10
15
 20
-4.98111412493422
 11
15
 21
-0.981114124934219
  0
LINE
  8
1
  6
DOT
 10
11
 20
-1
 11
11
 21
-6.98111412493422
  0
POLYLINE
  8
1
 70
1
 66
1
 40
0.6
 41
0.6
  0
VERTEX
  8
1
 10
26.7
 20
-3
 42
1
  0
VERTEX
  8
1
 10
27.3
 20
-3
 42
1
  0
SEQEND
  8
1
  0
LINE
  8
1
  6
DOT
 10
27
 20
-3
 11
27
 21
-1
  0
LINE
  8
1
  6
DOT
 10
39
 20
-3.01888587506578
 11
39
 21
-1
  0
LINE
  8
1
  6
DOT
 10
31
 20
-1.01888587506578
 11
31
 21
-5.01888587506578
  0
LINE
  8
1
  6
DOT
 10
13
 20
-3.01888587506578
 11
39
 21
-3.01888587506578
  0
LINE
  8
1
  6
DOT
 10
-25
 20
-4.98111412493422
 11
-29
 21
-0.981114124934219
  0
LINE
  8
1
  6
DOT
 10
-33
 20
-1
 11
-27
 21
-6.98111412493422
  0
LINE
  8
1
  6
DOT
 10
-15
 20
-2.98111412493422
 11
-17
 21
-1
  0
POLYLINE
  8
1
 70
1
 66
1
 40
0.6
 41
0.6
  0
VERTEX
  8
1
 10
-5.3
 20
-3
 42
1
  0
VERTEX
  8
1
 10
-4.7
 20
-3
 42
1
  0
SEQEND
  8
1
  0
LINE
  8
1
  6
DOT
 10
-4.98328033198572
 20
-1.01888587506579
 11
-5
 21
-3
  0
TEXT
  8
1
 40
2.475
 41
0.75
  1
10
  7
STANDARD
 72
2
 73
2
 10
6.03234316507976
 20
5.9
 11
6.03234316507976
 21
5.9
  0
TEXT
  8
1
 40
2.475
 41
0.75
  1
14
  7
STANDARD
 72
2
 73
2
 10
-37.0676568349203
 20
5.9
 11
-37.0676568349203
 21
5.9
  0
TEXT
  8
1
 40
2.475
 41
0.75
  1
82/84
  7
STANDARD
 72
2
 10
-17.5
 20
-19.1813858750658
 11
-17.5
 21
-19.1813858750658
  0
TEXT
  8
1
 40
2.475
 41
0.75
  1
12/14
  7
STANDARD
 72
2
 10
-34.1
 20
-15.7813858750658
 11
-34.1
 21
-15.7813858750658
  0
TEXT
  8
1
 40
2.475
 41
0.75
  1
5
  7
STANDARD
 10
-12.1119028111813
 20
-15.7813858750658
  0
TEXT
  8
1
 40
2.475
 41
0.75
  1
1
  7
STANDARD
 72
2
 10
-13.433508674262
 20
-15.8078779578916
 11
-13.433508674262
 21
-15.8078779578916
  0
TEXT
  8
1
 40
2.475
 41
0.75
  1
3
  7
STANDARD
 10
33.0880971888187
 20
-15.7625
  0
TEXT
  8
1
 40
2.475
 41
0.75
  1
2
  7
STANDARD
 72
2
 73
3
 10
25.5345652173913
 20
16.3162771684125
 11
25.5345652173913
 21
16.3162771684125
  0
TEXT
  8
1
 40
2.475
 41
0.75
  1
4
  7
STANDARD
 72
2
 73
3
 10
-18.4654347826087
 20
16.3162771684125
 11
-18.4654347826087
 21
16.3162771684125
  0
LINE
  8
1
 10
-17
 20
11
 11
-17
 21
15
  0
LINE
  8
1
 10
27
 20
15
 11
27
 21
11
  0
LINE
  8
1
 10
31
 20
-11
 11
31
 21
-15
  0
LINE
  8
1
 10
-13
 20
-11
 11
-13
 21
-15
  0
LINE
  8
1
 10
-17
 20
-11
 11
-17
 21
-15
  0
LINE
  8
1
 10
-29
 20
-11
 11
-29
 21
-15
  0
LINE
  8
1
 10
-33
 20
-11
 11
-33
 21
-15
  0
LINE
  8
1
 10
36
 20
1.01888587506577
 11
33
 21
1.01888587506577
  0
LINE
  8
1
 10
36
 20
1.01888587506577
 11
39
 21
-1
  0
LINE
  8
1
 10
39
 20
3.01888587506577
 11
36
 21
1.01888587506577
  0
POLYLINE
  8
1
 66
1
  0
VERTEX
  8
1
 10
33
 20
3.01888587506577
  0
VERTEX
  8
1
 10
39
 20
3.01888587506577
  0
VERTEX
  8
1
 10
39
 20
-1
  0
VERTEX
  8
1
 10
33
 20
-1
  0
VERTEX
  8
1
 10
33
 20
3.01888587506577
  0
SEQEND
  8
1
  0
LINE
  8
1
 10
-8
 20
1.01888587506577
 11
-11
 21
1.01888587506577
  0
LINE
  8
1
 10
-8
 20
1.01888587506577
 11
-5
 21
-1
  0
LINE
  8
1
 10
-5
 20
3.01888587506577
 11
-8
 21
1.01888587506577
  0
POLYLINE
  8
1
 66
1
  0
VERTEX
  8
1
 10
-11
 20
3.01888587506577
  0
VERTEX
  8
1
 10
-5
 20
3.01888587506577
  0
VERTEX
  8
1
 10
-5
 20
-1
  0
VERTEX
  8
1
 10
-11
 20
-1
  0
VERTEX
  8
1
 10
-11
 20
3.01888587506577
  0
SEQEND
  8
1
  0
LINE
  8
1
 10
7
 20
-1
 11
9
 21
3
  0
POLYLINE
  8
1
 66
1
  0
VERTEX
  8
1
 10
5
 20
3
  0
VERTEX
  8
1
 10
11
 20
3
  0
VERTEX
  8
1
 10
11
 20
-1
  0
VERTEX
  8
1
 10
5
 20
-1
  0
VERTEX
  8
1
 10
5
 20
3
  0
SEQEND
  8
1
  0
LINE
  8
1
 10
-37
 20
-1
 11
-35
 21
3
  0
POLYLINE
  8
1
 66
1
  0
VERTEX
  8
1
 10
-39
 20
3
  0
VERTEX
  8
1
 10
-33
 20
3
  0
VERTEX
  8
1
 10
-33
 20
-1
  0
VERTEX
  8
1
 10
-39
 20
-1
  0
VERTEX
  8
1
 10
-39
 20
3
  0
SEQEND
  8
1
  0
LINE
  8
1
 10
13.9999500595413
 20
1
 11
10.9999500595413
 21
-1
  0
LINE
  8
1
 10
10.9999500595413
 20
3
 11
13.9999500595413
 21
1
  0
POLYLINE
  8
1
 66
1
  0
VERTEX
  8
1
 10
10.9999500595413
 20
3
  0
VERTEX
  8
1
 10
16.9999500595413
 20
3
  0
VERTEX
  8
1
 10
16.9999500595413
 20
-1
  0
VERTEX
  8
1
 10
10.9999500595413
 20
-1
  0
VERTEX
  8
1
 10
10.9999500595413
 20
3
  0
SEQEND
  8
1
  0
LINE
  8
1
 10
-30
 20
1
 11
-33
 21
-1
  0
LINE
  8
1
 10
-33
 20
3
 11
-30
 21
1
  0
POLYLINE
  8
1
 66
1
  0
VERTEX
  8
1
 10
-33
 20
3
  0
VERTEX
  8
1
 10
-27
 20
3
  0
VERTEX
  8
1
 10
-27
 20
-1
  0
VERTEX
  8
1
 10
-33
 20
-1
  0
VERTEX
  8
1
 10
-33
 20
3
  0
SEQEND
  8
1
  0
LINE
  8
1
 10
7
 20
6.5
 11
11
 21
6.5
  0
LINE
  8
1
 10
7
 20
7
 11
7
 21
4
  0
LINE
  8
1
 10
7
 20
4.5
 11
11
 21
4.5
  0
LINE
  8
1
 10
11
 20
3
 11
11
 21
7
  0
LINE
  8
1
 10
-37
 20
6.5
 11
-33
 21
6.5
  0
LINE
  8
1
 10
-37
 20
7
 11
-37
 21
4
  0
LINE
  8
1
 10
-37
 20
4.5
 11
-33
 21
4.5
  0
LINE
  8
1
 10
-33
 20
3
 11
-33
 21
7
  0
LINE
  8
1
 10
19
 20
-1
 11
19
 21
1
  0
INSERT
  8
1
  2
LCBP1
 10
19
 20
1
 50
90
  0
POLYLINE
  8
1
 66
1
  0
VERTEX
  8
1
 10
17
 20
7
  0
VERTEX
  8
1
 10
25
 20
7
  0
VERTEX
  8
1
 10
25
 20
-1
  0
VERTEX
  8
1
 10
17
 20
-1
  0
VERTEX
  8
1
 10
17
 20
7
  0
SEQEND
  8
1
  0
LINE
  8
1
 10
19
 20
7
 11
23
 21
-1
  0
INSERT
  8
1
  2
LCA1
 10
23
 20
-1
 50
-63.434948822922
  0
LINE
  8
1
 10
-17
 20
-1
 11
-17
 21
1
  0
INSERT
  8
1
  2
LCBP1
 10
-17
 20
1
 50
90
  0
POLYLINE
  8
1
 66
1
  0
VERTEX
  8
1
 10
-19
 20
7
  0
VERTEX
  8
1
 10
-11
 20
7
  0
VERTEX
  8
1
 10
-11
 20
-1
  0
VERTEX
  8
1
 10
-19
 20
-1
  0
VERTEX
  8
1
 10
-19
 20
7
  0
SEQEND
  8
1
  0
LINE
  8
1
 10
-17
 20
7
 11
-13
 21
-1
  0
INSERT
  8
1
  2
LCA1
 10
-13
 20
-1
 50
-63.434948822922
  0
POLYLINE
  8
1
 66
1
  0
VERTEX
  8
1
 10
25
 20
7
  0
VERTEX
  8
1
 10
33
 20
7
  0
VERTEX
  8
1
 10
33
 20
-1
  0
VERTEX
  8
1
 10
25
 20
-1
  0
VERTEX
  8
1
 10
25
 20
7
  0
SEQEND
  8
1
  0
LINE
  8
1
 10
31
 20
-1
 11
31
 21
1
  0
INSERT
  8
1
  2
LCBP1
 10
31
 20
1
 50
90
  0
LINE
  8
1
 10
27
 20
-1
 11
27
 21
7
  0
INSERT
  8
1
  2
LCA1
 10
27
 20
7
 50
90
  0
POLYLINE
  8
1
 66
1
  0
VERTEX
  8
1
 10
-27
 20
7
  0
VERTEX
  8
1
 10
-19
 20
7
  0
VERTEX
  8
1
 10
-19
 20
-1
  0
VERTEX
  8
1
 10
-27
 20
-1
  0
VERTEX
  8
1
 10
-27
 20
7
  0
SEQEND
  8
1
  0
LINE
  8
1
 10
-21
 20
-1
 11
-21
 21
1
  0
INSERT
  8
1
  2
LCBP1
 10
-21
 20
1
 50
90
  0
LINE
  8
1
 10
-25
 20
-1
 11
-25
 21
7
  0
INSERT
  8
1
  2
LCA1
 10
-25
 20
7
 50
90
  0
CIRCLE
  8
CONNECTIONS
 10
-17
 20
14.9811141249342
 40
0
  0
CIRCLE
  8
CONNECTIONS
 10
27
 20
14.9811141249342
 40
0
  0
CIRCLE
  8
CONNECTIONS
 10
-33
 20
-15.0188858750658
 40
0
  0
CIRCLE
  8
CONNECTIONS
 10
-16.9119028111813
 20
-15.0188858750658
 40
0
  0
CIRCLE
  8
CONNECTIONS
 10
-13
 20
-15.0188858750658
 40
0
  0
CIRCLE
  8
CONNECTIONS
 10
-29
 20
-15.0188858750658
 40
0
  0
CIRCLE
  8
CONNECTIONS
 10
31
 20
-15.0188858750658
 40
0
  0
CIRCLE
  8
CONNECTIONS
 10
5
 20
1
 40
0
  0
CIRCLE
  8
CONNECTIONS
 10
-39
 20
1
 40
0
  0
ENDBLK
  8
0
  0
ENDSEC
  0
SECTION
  2
ENTITIES
  0
INSERT
  8
1
  2
B90054_00991813
 10
43
 20
15
  0
ENDSEC
  0
EOF
