  0
SECTION
  2
HEADER
  9
$LIMMIN
 10
0
 20
0
  9
$LIMMAX
 10
52.5
 20
74.25
  9
$EXTMIN
 10
0
 20
122
  9
$EXTMAX
 10
0
 20
58
  0
ENDSEC
  0
SECTION
  2
TABLES
  0
TABLE
  2
LTYPE
 70
9
  0
LTYPE
  2
CONTINUOUS
 70
64
  3
Solid line
 72
65
 73
0
 40
0
  0
LTYPE
  2
DASHED
 70
64
  3
__ __ __ __ __ __ __ __ __
 72
65
 73
2
 40
0.75
 49
0.5
 49
-0.25
  0
LTYPE
  2
DOT
 70
64
  3
...........................
 72
65
 73
2
 40
0.25
 49
0
 49
-0.25
  0
LTYPE
  2
DASHDOT
 70
64
  3
__ . __ . __ . __ . __ . __ . 
 72
65
 73
4
 40
1
 49
0.5
 49
-0.25
 49
0
 49
-0.25
  0
ENDTAB
  0
TABLE
  2
LAYER
 70
10
  0
LAYER
  2
1
 70
0
 62
7
  6
CONTINUOUS
  0
LAYER
  2
CONNECTIONS
 70
0
 62
-7
  6
CONTINUOUS
  0
ENDTAB
  0
ENDSEC
  0
SECTION
  2
BLOCKS
  0
BLOCK
  8
0
  2
TRICON
 70
0
 10
0
 20
0
  0
POLYLINE
  8
1
 70
1
 66
1
 40
0.5
 41
0.5
  0
VERTEX
  8
1
 10
-0.25
 20
0
 42
1
  0
VERTEX
  8
1
 10
0.25
 20
0
 42
1
  0
SEQEND
  8
1
  0
ENDBLK
  8
0
  0
BLOCK
  8
0
  2
TRICONSMALL
 70
0
 10
0
 20
0
  0
POLYLINE
  8
1
 70
1
 66
1
 40
0.25
 41
0.25
  0
VERTEX
  8
1
 10
-0.125
 20
0
 42
1
  0
VERTEX
  8
1
 10
0.125
 20
0
 42
1
  0
SEQEND
  8
1
  0
ENDBLK
  8
0
  0
BLOCK
  8
0
  2
TRICONCIRCLE
 70
0
 10
0
 20
0
  0
CIRCLE
  8
1
 10
0
 20
0
 40
0.5
  0
ENDBLK
  8
0
  0
BLOCK
  8
0
  2
LCBP0
 70
0
 10
0
 20
0
  0
LINE
  8
1
 10
0
 20
-0.46875
 11
0
 21
0.46875
  0
ENDBLK
  8
0
  0
BLOCK
  8
0
  2
LCBP1
 70
0
 10
0
 20
0
  0
LINE
  8
1
 10
0
 20
-0.625
 11
0
 21
0.625
  0
ENDBLK
  8
0
  0
BLOCK
  8
0
  2
LCBP2
 70
0
 10
0
 20
0
  0
LINE
  8
1
 10
0
 20
-0.9375
 11
0
 21
0.9375
  0
ENDBLK
  8
0
  0
BLOCK
  8
0
  2
LCA1
 70
0
 10
0
 20
0
  0
SOLID
  8
1
 62
7 
 10
0
 20
0
 11
-1.4
 21
-0.275
 12
-1.4
 22
0.275
 13
-1.4
 23
0.275
  0
ENDBLK
  8
0
  0
BLOCK
  8
0
  2
LCA2
 70
0
 10
0
 20
0
  0
SOLID
  8
1
 62
7 
 10
0
 20
0
 11
-1.65
 21
-0.525
 12
-1.65
 22
0.525
 13
-1.65
 23
0.525
  0
ENDBLK
  8
0
  0
BLOCK
  8
0
  2
LCA3
 70
0
 10
0
 20
0
  0
SOLID
  8
1
 62
7 
 10
0
 20
0
 11
-2.15
 21
-1.15
 12
-2.15
 22
1.15
 13
-2.15
 23
1.15
  0
ENDBLK
  8
0
  0
BLOCK
  8
0
  2
LCA1R
 70
0
 10
0
 20
0
  0
SOLID
  8
1
 62
7 
 10
0
 20
0
 11
1.4
 21
-0.275
 12
1.4
 22
0.275
 13
1.4
 23
0.275
  0
ENDBLK
  8
0
  0
BLOCK
  8
0
  2
LCA2R
 70
0
 10
0
 20
0
  0
SOLID
  8
1
 62
7 
 10
0
 20
0
 11
1.65
 21
-0.525
 12
1.65
 22
0.525
 13
1.65
 23
0.525
  0
ENDBLK
  8
0
  0
BLOCK
  8
0
  2
LCA3R
 70
0
 10
0
 20
0
  0
SOLID
  8
1
 62
7 
 10
0
 20
0
 11
2.15
 21
-1.15
 12
2.15
 22
1.15
 13
2.15
 23
1.15
  0
ENDBLK
  8
0
  0
BLOCK
  8
0
  2
B17879_00991790
 70
0
 10
0
 20
0
  0
POLYLINE
  8
1
 66
1
  0
VERTEX
  8
1
 10
-57
 20
25
  0
VERTEX
  8
1
 10
47
 20
25
  0
VERTEX
  8
1
 10
47
 20
-27
  0
VERTEX
  8
1
 10
-57
 20
-27
  0
VERTEX
  8
1
 10
-57
 20
25
  0
SEQEND
  8
1
  0
TEXT
  8
1
 40
2.475
 41
0.75
  1
1
  7
STANDARD
 73
2
 10
49.2772997619384
 20
-22.3030060505947
 11
49.2772997619384
 21
-22.3030060505947
  0
TEXT
  8
1
 40
2.475
 41
0.75
  1
3
  7
STANDARD
 73
2
 10
49.2512157702509
 20
9.8323558833061
 11
49.2512157702509
 21
9.8323558833061
  0
LINE
  8
1
 10
51
 20
-19
 11
47
 21
-19
  0
LINE
  8
1
 10
47
 20
7
 11
51
 21
7
  0
TEXT
  8
1
 40
2.475
 41
0.75
  1
1
  7
STANDARD
 72
2
 73
2
 10
-59.3239145402282
 20
-22.3403949886897
 11
-59.3239145402282
 21
-22.3403949886897
  0
TEXT
  8
1
 40
2.475
 41
0.75
  1
2
  7
STANDARD
 72
2
 73
2
 10
-29.2696253458659
 20
28
 11
-29.2696253458659
 21
28
  0
LINE
  8
1
 10
-61
 20
-19
 11
-57
 21
-19
  0
LINE
  8
1
 10
-27
 20
25
 11
-27
 21
29
  0
LINE
  8
1
 10
-31
 20
-19
 11
47
 21
-19
  0
LINE
  8
1
 10
-19
 20
7
 11
47
 21
7
  0
LINE
  8
1
 10
39
 20
21
 11
-53
 21
21
  0
POLYLINE
  8
1
 70
1
 66
1
 40
0.6
 41
0.6
  0
VERTEX
  8
1
 10
38.7
 20
-19
 42
1
  0
VERTEX
  8
1
 10
39.3
 20
-19
 42
1
  0
SEQEND
  8
1
  0
LINE
  8
1
 10
39
 20
-13
 11
39
 21
-19
  0
LINE
  8
1
 10
39
 20
1
 11
39
 21
21
  0
LINE
  8
1
 10
31.5
 20
-7
 11
35
 21
-7
  0
LINE
  8
1
 10
16
 20
-7
 11
20
 21
-7
  0
POLYLINE
  8
1
 70
1
 66
1
 40
0.6
 41
0.6
  0
VERTEX
  8
1
 10
15.7
 20
-7
 42
1
  0
VERTEX
  8
1
 10
16.3
 20
-7
 42
1
  0
SEQEND
  8
1
  0
LINE
  8
1
 10
16
 20
-13
 11
16
 21
-7
  0
LINE
  8
1
 10
5
 20
-7
 11
1
 21
-7
  0
POLYLINE
  8
1
 70
1
 66
1
 40
0.6
 41
0.6
  0
VERTEX
  8
1
 10
4.7
 20
-7
 42
1
  0
VERTEX
  8
1
 10
5.3
 20
-7
 42
1
  0
SEQEND
  8
1
  0
LINE
  8
1
 10
5
 20
-13
 11
5
 21
-7
  0
LINE
  8
1
 10
-57
 20
-19
 11
-53
 21
-19
  0
LINE
  8
1
 10
-27
 20
-11
 11
-27
 21
-27
  0
LINE
  8
1
 10
-35
 20
-11
 11
-27
 21
-11
  0
LINE
  8
1
 10
-34.9999999999915
 20
-9.00002255505774
 11
-34.9999999999915
 21
-11
  0
POLYLINE
  8
1
 70
1
 66
1
 40
0.6
 41
0.6
  0
VERTEX
  8
1
 10
-53.3
 20
-19
 42
1
  0
VERTEX
  8
1
 10
-52.7
 20
-19
 42
1
  0
SEQEND
  8
1
  0
LINE
  8
1
 10
-53
 20
-19
 11
-47
 21
-19
  0
LINE
  8
1
 10
-53
 20
21
 11
-53
 21
-19
  0
LINE
  8
1
 10
-27
 20
11
 11
-27
 21
25
  0
LINE
  8
1
 10
-39
 20
-13
 11
-39
 21
-15
  0
LINE
  8
1
 10
-38.9999999999915
 20
-9.00002255505774
 11
-38.9999999999915
 21
-13
  0
LINE
  8
1
 10
-33
 20
6.99999999999999
 11
-35
 21
6.99999999999999
  0
LINE
  8
1
 10
-39
 20
7
 11
-35
 21
7
  0
LINE
  8
1
 10
-38.9999999999915
 20
-1.00002255505774
 11
-38.9999999999915
 21
7
  0
LINE
  8
1
  6
DOT
 10
25.7431457505077
 20
-1.34314575050764
 11
25.7431457505077
 21
-12.6568542494924
  0
POLYLINE
  8
1
 66
1
  0
VERTEX
  8
1
 10
25.7431457505077
 20
-12.6568542494923
  0
VERTEX
  8
1
 10
31.4
 20
-7
  0
VERTEX
  8
1
 10
25.7431457505077
 20
-1.34314575050765
  0
VERTEX
  8
1
 10
20.0862915010153
 20
-7
  0
VERTEX
  8
1
 10
25.7431457505077
 20
-12.6568542494923
  0
SEQEND
  8
1
  0
POLYLINE
  8
1
  6
DOT
 66
1
  0
VERTEX
  8
1
 10
-27
 20
11
  0
VERTEX
  8
1
 10
-23
 20
15
  0
VERTEX
  8
1
 10
-17
 20
15
  0
VERTEX
  8
1
 10
-17
 20
9
  0
VERTEX
  8
1
 10
-19
 20
9
  0
SEQEND
  8
1
  0
LINE
  8
1
 10
-27
 20
7.31666666666667
 11
-27
 21
17
  0
POLYLINE
  8
1
 70
1
 66
1
 40
0.6
 41
0.6
  0
VERTEX
  8
1
 10
-27.2999999999999
 20
7
 42
1
  0
VERTEX
  8
1
 10
-26.6999999999999
 20
7
 42
1
  0
SEQEND
  8
1
  0
LINE
  8
1
 10
-18.9999999999999
 20
6.99999999999999
 11
-30.5999999999999
 21
6.99999999999999
  0
LINE
  8
1
 10
-32.9999999999999
 20
6.99999999999999
 11
-34.9999999999999
 21
6.99999999999999
  0
CIRCLE
  8
1
 10
-31.5999999999999
 20
6.99999999999999
 40
1
  0
LINE
  8
1
 10
-32.9999999999999
 20
6.99999999999999
 11
-30.9999999999999
 21
4.99999999999999
  0
LINE
  8
1
 10
-30.9999999999999
 20
8.99999999999999
 11
-32.9999999999999
 21
6.99999999999999
  0
LINE
  8
1
 10
-20.9999999999999
 20
6.99999999999999
 11
-22.9999999999999
 21
4.99999999999999
  0
LINE
  8
1
 10
-22.9999999999999
 20
8.99999999999999
 11
-20.9999999999999
 21
6.99999999999999
  0
POLYLINE
  8
1
 66
1
  0
VERTEX
  8
1
 10
-19
 20
11
  0
VERTEX
  8
1
 10
-35
 20
11
  0
VERTEX
  8
1
 10
-35
 20
3
  0
VERTEX
  8
1
 10
-19
 20
3
  0
VERTEX
  8
1
 10
-19
 20
11
  0
SEQEND
  8
1
  0
LINE
  8
1
 10
39
 20
-7
 11
35
 21
-7
  0
POLYLINE
  8
1
 70
1
 66
1
 40
0.6
 41
0.6
  0
VERTEX
  8
1
 10
38.7
 20
-6.99999999999994
 42
1
  0
VERTEX
  8
1
 10
39.3
 20
-6.99999999999994
 42
1
  0
SEQEND
  8
1
  0
LINE
  8
1
 10
39
 20
1.00000000000006
 11
39
 21
-10.5999999999999
  0
LINE
  8
1
 10
39
 20
-12.9999999999999
 11
39
 21
-14.9999999999999
  0
CIRCLE
  8
1
 10
39
 20
-11.5999999999999
 40
1
  0
LINE
  8
1
 10
39
 20
-12.9999999999999
 11
41
 21
-10.9999999999999
  0
LINE
  8
1
 10
37
 20
-10.9999999999999
 11
39
 21
-12.9999999999999
  0
LINE
  8
1
 10
39
 20
-0.999999999999938
 11
41
 21
-2.99999999999994
  0
LINE
  8
1
 10
37
 20
-2.99999999999994
 11
39
 21
-0.999999999999938
  0
POLYLINE
  8
1
 66
1
  0
VERTEX
  8
1
 10
35
 20
1
  0
VERTEX
  8
1
 10
35
 20
-15
  0
VERTEX
  8
1
 10
43
 20
-15
  0
VERTEX
  8
1
 10
43
 20
1
  0
VERTEX
  8
1
 10
35
 20
1
  0
SEQEND
  8
1
  0
LINE
  8
1
 10
9.5
 20
-13
 11
16
 21
-13
  0
LINE
  8
1
 10
7
 20
-13
 11
5
 21
-13
  0
POLYLINE
  8
1
 66
1
  0
VERTEX
  8
1
 10
14.5
 20
-13
  0
VERTEX
  8
1
 10
14.0833333333334
 20
-11
  0
VERTEX
  8
1
 10
13.25
 20
-15
  0
VERTEX
  8
1
 10
12.4166666666666
 20
-11
  0
VERTEX
  8
1
 10
11.5833333333333
 20
-15
  0
VERTEX
  8
1
 10
10.75
 20
-11
  0
VERTEX
  8
1
 10
9.91666666666668
 20
-15
  0
VERTEX
  8
1
 10
9.5
 20
-13
  0
SEQEND
  8
1
  0
CIRCLE
  8
1
 10
8.53333333333333
 20
-13
 40
1
  0
POLYLINE
  8
1
 66
1
  0
VERTEX
  8
1
 10
9
 20
-11
  0
VERTEX
  8
1
 10
7
 20
-13
  0
VERTEX
  8
1
 10
9
 20
-15
  0
SEQEND
  8
1
  0
POLYLINE
  8
1
 66
1
  0
VERTEX
  8
1
 10
-41
 20
-5
  0
VERTEX
  8
1
 10
-47
 20
-5
  0
VERTEX
  8
1
 10
-47
 20
-9
  0
VERTEX
  8
1
 10
-41
 20
-9
  0
VERTEX
  8
1
 10
-41
 20
-5
  0
SEQEND
  8
1
  0
LINE
  8
1
 10
-46.9946894707042
 20
-5.03873562545148
 11
-43.5692317181956
 21
-6.99999999999999
  0
LINE
  8
1
 10
-43.5358983848623
 20
-6.99999999999999
 11
-41
 21
-6.99999999999999
  0
LINE
  8
1
 10
-47
 20
-8.99999999999999
 11
-43.5358983848623
 21
-6.99999999999999
  0
POLYLINE
  8
1
 66
1
  0
VERTEX
  8
1
 10
-46
 20
-1
  0
VERTEX
  8
1
 10
-45.5833333333333
 20
-3
  0
VERTEX
  8
1
 10
-44.75
 20
1
  0
VERTEX
  8
1
 10
-43.9166666666667
 20
-3
  0
VERTEX
  8
1
 10
-43.0833333333333
 20
1
  0
VERTEX
  8
1
 10
-42.25
 20
-3
  0
VERTEX
  8
1
 10
-41.4166666666667
 20
1
  0
VERTEX
  8
1
 10
-41
 20
-1
  0
SEQEND
  8
1
  0
POLYLINE
  8
1
 66
1
  0
VERTEX
  8
1
 10
-28
 20
-27
  0
VERTEX
  8
1
 10
-27
 20
-29
  0
VERTEX
  8
1
 10
-26
 20
-27
  0
SEQEND
  8
1
  0
LINE
  8
1
 10
-41
 20
-3
 11
-41
 21
1
  0
ARC
  8
1
 10
-3
 20
-7
 40
4
 50
270
 51
90
  0
ARC
  8
1
 10
-11
 20
-7
 40
4
 50
90
 51
270
  0
LINE
  8
1
 10
-11
 20
-3
 11
-3
 21
-3
  0
LINE
  8
1
 10
-11
 20
-11
 11
-3
 21
-11
  0
LINE
  8
1
 10
-35
 20
-15
 11
-35
 21
-16.5
  0
LINE
  8
1
 10
-35
 20
-21.5
 11
-35
 21
-23
  0
LINE
  8
1
 10
-43.5
 20
-21.5
 11
-43.5
 21
-23
  0
LINE
  8
1
 10
-43.5
 20
-15
 11
-43.5
 21
-16.5
  0
LINE
  8
1
 10
-33.0000042421136
 20
-17.0000283127416
 11
-33.0000042421136
 21
-21.0000283127416
  0
LINE
  8
1
 10
-44.9999978205474
 20
-17.0000218911754
 11
-44.9999978205474
 21
-21.0000218911754
  0
LINE
  8
1
 10
-44.9999978205474
 20
-18.9999978205474
 11
-33
 21
-18.9999978205474
  0
POLYLINE
  8
1
 66
1
  0
VERTEX
  8
1
 10
-31
 20
-15
  0
VERTEX
  8
1
 10
-47
 20
-15
  0
VERTEX
  8
1
 10
-47
 20
-23
  0
VERTEX
  8
1
 10
-31
 20
-23
  0
VERTEX
  8
1
 10
-31
 20
-15
  0
SEQEND
  8
1
  0
LINE
  8
1
 10
5
 20
-7
 11
16
 21
-7
  0
ARC
  8
1
 10
10.5
 20
-17
 40
9
 50
70.528596800055
 51
109.471050579339
  0
ARC
  8
1
 10
10.5
 20
3
 40
9
 50
250.52865870751
 51
289.47139531546
  0
POLYLINE
  8
1
 66
1
  0
VERTEX
  8
1
 10
59
 20
6
  0
VERTEX
  8
1
 10
61
 20
7
  0
VERTEX
  8
1
 10
59
 20
8
  0
SEQEND
  8
1
  0
LINE
  8
1
 10
57
 20
9
 11
57
 21
7
  0
LINE
  8
1
 10
55
 20
5
 11
55
 21
7
  0
LINE
  8
1
 10
53
 20
9
 11
53
 21
7
  0
POLYLINE
  8
1
 66
1
  0
VERTEX
  8
1
 10
51
 20
9
  0
VERTEX
  8
1
 10
59
 20
9
  0
VERTEX
  8
1
 10
59
 20
5
  0
VERTEX
  8
1
 10
51
 20
5
  0
VERTEX
  8
1
 10
51
 20
9
  0
SEQEND
  8
1
  0
LINE
  8
1
 10
-21.0000000000069
 20
-7
 11
-25
 21
-7
  0
LINE
  8
1
 10
-17.5359114070379
 20
-6.99999248164742
 11
-15
 21
-6.99999248164742
  0
LINE
  8
1
 10
-17.5359114070379
 20
-4.99999248164742
 11
-17.5359114070379
 21
-8.99999248164742
  0
LINE
  8
1
 10
-17.5359114070379
 20
-4.99999248164742
 11
-21.0000130221756
 21
-6.99999248164742
  0
LINE
  8
1
 10
-17.5359114070379
 20
-8.99999248164742
 11
-21.0000130221756
 21
-6.99999248164742
  0
LINE
  8
1
 10
-31
 20
-9
 11
-31
 21
-7
  0
INSERT
  8
1
  2
LCBP1
 10
-31
 20
-7
 50
90
  0
POLYLINE
  8
1
 66
1
  0
VERTEX
  8
1
 10
-33
 20
-1
  0
VERTEX
  8
1
 10
-25
 20
-1
  0
VERTEX
  8
1
 10
-25
 20
-9
  0
VERTEX
  8
1
 10
-33
 20
-9
  0
VERTEX
  8
1
 10
-33
 20
-1
  0
SEQEND
  8
1
  0
LINE
  8
1
 10
-31
 20
-1
 11
-27
 21
-9
  0
INSERT
  8
1
  2
LCA1
 10
-27
 20
-9
 50
-63.434948822922
  0
POLYLINE
  8
1
 66
1
  0
VERTEX
  8
1
 10
-41
 20
-1
  0
VERTEX
  8
1
 10
-33
 20
-1
  0
VERTEX
  8
1
 10
-33
 20
-9
  0
VERTEX
  8
1
 10
-41
 20
-9
  0
VERTEX
  8
1
 10
-41
 20
-1
  0
SEQEND
  8
1
  0
LINE
  8
1
 10
-35
 20
-9
 11
-35
 21
-7
  0
INSERT
  8
1
  2
LCBP1
 10
-35
 20
-7
 50
90
  0
LINE
  8
1
 10
-39
 20
-9
 11
-39
 21
-1
  0
INSERT
  8
1
  2
LCA1
 10
-39
 20
-1
 50
90
  0
CIRCLE
  8
CONNECTIONS
 10
-27
 20
29
 40
0
  0
CIRCLE
  8
CONNECTIONS
 10
-61
 20
-19
 40
0
  0
CIRCLE
  8
CONNECTIONS
 10
51
 20
-19
 40
0
  0
CIRCLE
  8
CONNECTIONS
 10
51
 20
6.99999999999999
 40
0
  0
ENDBLK
  8
0
  0
ENDSEC
  0
SECTION
  2
ENTITIES
  0
INSERT
  8
1
  2
B17879_00991790
 10
61
 20
29
  0
ENDSEC
  0
EOF
