  0
SECTION
  2
HEADER
  9
$LIMMIN
 10
0
 20
0
  9
$LIMMAX
 10
52.5
 20
74.25
  9
$EXTMIN
 10
0
 20
68
  9
$EXTMAX
 10
0
 20
44
  0
ENDSEC
  0
SECTION
  2
TABLES
  0
TABLE
  2
LTYPE
 70
9
  0
LTYPE
  2
CONTINUOUS
 70
64
  3
Solid line
 72
65
 73
0
 40
0
  0
LTYPE
  2
DASHED
 70
64
  3
__ __ __ __ __ __ __ __ __
 72
65
 73
2
 40
0.75
 49
0.5
 49
-0.25
  0
LTYPE
  2
DOT
 70
64
  3
...........................
 72
65
 73
2
 40
0.25
 49
0
 49
-0.25
  0
LTYPE
  2
DASHDOT
 70
64
  3
__ . __ . __ . __ . __ . __ . 
 72
65
 73
4
 40
1
 49
0.5
 49
-0.25
 49
0
 49
-0.25
  0
ENDTAB
  0
TABLE
  2
LAYER
 70
10
  0
LAYER
  2
1
 70
0
 62
7
  6
CONTINUOUS
  0
LAYER
  2
CONNECTIONS
 70
0
 62
-7
  6
CONTINUOUS
  0
ENDTAB
  0
ENDSEC
  0
SECTION
  2
BLOCKS
  0
BLOCK
  8
0
  2
TRICON
 70
0
 10
0
 20
0
  0
POLYLINE
  8
1
 70
1
 66
1
 40
0.5
 41
0.5
  0
VERTEX
  8
1
 10
-0.25
 20
0
 42
1
  0
VERTEX
  8
1
 10
0.25
 20
0
 42
1
  0
SEQEND
  8
1
  0
ENDBLK
  8
0
  0
BLOCK
  8
0
  2
TRICONSMALL
 70
0
 10
0
 20
0
  0
POLYLINE
  8
1
 70
1
 66
1
 40
0.25
 41
0.25
  0
VERTEX
  8
1
 10
-0.125
 20
0
 42
1
  0
VERTEX
  8
1
 10
0.125
 20
0
 42
1
  0
SEQEND
  8
1
  0
ENDBLK
  8
0
  0
BLOCK
  8
0
  2
TRICONCIRCLE
 70
0
 10
0
 20
0
  0
CIRCLE
  8
1
 10
0
 20
0
 40
0.5
  0
ENDBLK
  8
0
  0
BLOCK
  8
0
  2
LCBP0
 70
0
 10
0
 20
0
  0
LINE
  8
1
 10
0
 20
-0.46875
 11
0
 21
0.46875
  0
ENDBLK
  8
0
  0
BLOCK
  8
0
  2
LCBP1
 70
0
 10
0
 20
0
  0
LINE
  8
1
 10
0
 20
-0.625
 11
0
 21
0.625
  0
ENDBLK
  8
0
  0
BLOCK
  8
0
  2
LCBP2
 70
0
 10
0
 20
0
  0
LINE
  8
1
 10
0
 20
-0.9375
 11
0
 21
0.9375
  0
ENDBLK
  8
0
  0
BLOCK
  8
0
  2
LCA1
 70
0
 10
0
 20
0
  0
SOLID
  8
1
 62
7 
 10
0
 20
0
 11
-1.4
 21
-0.275
 12
-1.4
 22
0.275
 13
-1.4
 23
0.275
  0
ENDBLK
  8
0
  0
BLOCK
  8
0
  2
LCA2
 70
0
 10
0
 20
0
  0
SOLID
  8
1
 62
7 
 10
0
 20
0
 11
-1.65
 21
-0.525
 12
-1.65
 22
0.525
 13
-1.65
 23
0.525
  0
ENDBLK
  8
0
  0
BLOCK
  8
0
  2
LCA3
 70
0
 10
0
 20
0
  0
SOLID
  8
1
 62
7 
 10
0
 20
0
 11
-2.15
 21
-1.15
 12
-2.15
 22
1.15
 13
-2.15
 23
1.15
  0
ENDBLK
  8
0
  0
BLOCK
  8
0
  2
LCA1R
 70
0
 10
0
 20
0
  0
SOLID
  8
1
 62
7 
 10
0
 20
0
 11
1.4
 21
-0.275
 12
1.4
 22
0.275
 13
1.4
 23
0.275
  0
ENDBLK
  8
0
  0
BLOCK
  8
0
  2
LCA2R
 70
0
 10
0
 20
0
  0
SOLID
  8
1
 62
7 
 10
0
 20
0
 11
1.65
 21
-0.525
 12
1.65
 22
0.525
 13
1.65
 23
0.525
  0
ENDBLK
  8
0
  0
BLOCK
  8
0
  2
LCA3R
 70
0
 10
0
 20
0
  0
SOLID
  8
1
 62
7 
 10
0
 20
0
 11
2.15
 21
-1.15
 12
2.15
 22
1.15
 13
2.15
 23
1.15
  0
ENDBLK
  8
0
  0
BLOCK
  8
0
  2
B6115_00991777
 70
0
 10
0
 20
0
  0
POLYLINE
  8
1
  6
DASHDOT
 66
1
  0
VERTEX
  8
1
 10
-30
 20
18
  0
VERTEX
  8
1
 10
30
 20
18
  0
VERTEX
  8
1
 10
30
 20
-18
  0
VERTEX
  8
1
 10
-30
 20
-18
  0
VERTEX
  8
1
 10
-30
 20
18
  0
SEQEND
  8
1
  0
LINE
  8
1
 10
30
 20
-2
 11
34
 21
-2
  0
LINE
  8
1
 10
22
 20
-18
 11
22
 21
-20
  0
LINE
  8
1
 10
22
 20
18
 11
22
 21
20
  0
LINE
  8
1
 10
-8
 20
-18
 11
-8
 21
-22
  0
LINE
  8
1
 10
-30
 20
-6
 11
-34
 21
-6
  0
LINE
  8
1
 10
-34
 20
-2
 11
-30
 21
-2
  0
TEXT
  8
1
 40
2.475
 41
0.75
  1
2
  7
STANDARD
 73
2
 10
31.1584699453552
 20
1.01639344262298
 11
31.1584699453552
 21
1.01639344262298
  0
TEXT
  8
1
 40
2.475
 41
0.75
  1
1
  7
STANDARD
 72
2
 10
-30.4655974188913
 20
-0.11554957911929
 11
-30.4655974188913
 21
-0.11554957911929
  0
TEXT
  8
1
 40
2.475
 41
0.75
  1
3
  7
STANDARD
 73
2
 10
-33.9345238095238
 20
-9.61904761904762
 11
-33.9345238095238
 21
-9.61904761904762
  0
LINE
  8
1
 10
22
 20
-18
 11
22
 21
18
  0
LINE
  8
1
 10
30
 20
-2
 11
10
 21
-2
  0
POLYLINE
  8
1
 66
1
  0
VERTEX
  8
1
 10
0
 20
-2
  0
VERTEX
  8
1
 10
0
 20
-12
  0
VERTEX
  8
1
 10
2
 20
-12
  0
SEQEND
  8
1
  0
LINE
  8
1
 10
-8
 20
-7.68203497615264
 11
-8
 21
-18
  0
LINE
  8
1
 10
2
 20
-2
 11
-2.3431457505076
 21
-2
  0
LINE
  8
1
 10
-13.6568542494924
 20
-2
 11
-18
 21
-2
  0
LINE
  8
1
 10
-26
 20
-6
 11
-30
 21
-6
  0
LINE
  8
1
 10
-30
 20
-2
 11
-26
 21
-2
  0
POLYLINE
  8
1
 70
1
 66
1
 40
0.5
 41
0.5
  0
VERTEX
  8
1
 10
-0.25
 20
-2
 42
1
  0
VERTEX
  8
1
 10
0.25
 20
-2
 42
1
  0
SEQEND
  8
1
  0
POLYLINE
  8
1
 70
1
 66
1
 40
0.5
 41
0.5
  0
VERTEX
  8
1
 10
13.75
 20
-2
 42
1
  0
VERTEX
  8
1
 10
14.25
 20
-2
 42
1
  0
SEQEND
  8
1
  0
POLYLINE
  8
1
 66
1
  0
VERTEX
  8
1
 10
12
 20
-12
  0
VERTEX
  8
1
 10
14
 20
-12
  0
VERTEX
  8
1
 10
14
 20
-2
  0
SEQEND
  8
1
  0
LINE
  8
1
 10
14
 20
4
 11
14
 21
-2
  0
LINE
  8
1
 10
22
 20
-20
 11
22
 21
-22
  0
INSERT
  8
1
  2
LCBP1
 10
22
 20
-22
 50
-90
  0
LINE
  8
1
 10
22
 20
20
 11
22
 21
22
  0
INSERT
  8
1
  2
LCBP1
 10
22
 20
22
 50
90
  0
LINE
  8
1
 10
15.7677669529664
 20
6.23223304703364
 11
12.2322330470336
 21
9.76776695296637
  0
INSERT
  8
1
  2
LCA1
 10
12.2322330470336
 20
9.76776695296637
 50
135
  0
CIRCLE
  8
1
 10
14
 20
8
 40
4
  0
LINE
  8
1
 10
2
 20
-12
 11
5.52400374233888
 21
-12
  0
LINE
  8
1
 10
8
 20
-12
 11
12
 21
-12
  0
CIRCLE
  8
1
 10
6.5
 20
-12
 40
1
  0
POLYLINE
  8
1
 66
1
  0
VERTEX
  8
1
 10
6
 20
-14
  0
VERTEX
  8
1
 10
8
 20
-12
  0
VERTEX
  8
1
 10
6
 20
-10
  0
SEQEND
  8
1
  0
POLYLINE
  8
1
 66
1
  0
VERTEX
  8
1
 10
-18
 20
8
  0
VERTEX
  8
1
 10
-26
 20
8
  0
VERTEX
  8
1
 10
-26
 20
0
  0
VERTEX
  8
1
 10
-18
 20
0
  0
VERTEX
  8
1
 10
-18
 20
8
  0
SEQEND
  8
1
  0
LINE
  8
1
 10
-26
 20
2
 11
-24
 21
2
  0
INSERT
  8
1
  2
LCBP1
 10
-24
 20
2
 50
0
  0
LINE
  8
1
 10
-26
 20
6
 11
-18
 21
6
  0
INSERT
  8
1
  2
LCA1
 10
-18
 20
6
 50
0
  0
LINE
  8
1
 10
-26
 20
-2
 11
-24
 21
-2
  0
INSERT
  8
1
  2
LCBP1
 10
-24
 20
-2
 50
0
  0
POLYLINE
  8
1
 66
1
  0
VERTEX
  8
1
 10
-18
 20
0
  0
VERTEX
  8
1
 10
-26
 20
0
  0
VERTEX
  8
1
 10
-26
 20
-8
  0
VERTEX
  8
1
 10
-18
 20
-8
  0
VERTEX
  8
1
 10
-18
 20
0
  0
SEQEND
  8
1
  0
LINE
  8
1
 10
-18
 20
-2
 11
-26
 21
-6
  0
INSERT
  8
1
  2
LCA1
 10
-26
 20
-6
 50
-153.434948822922
  0
LINE
  8
1
 10
-22
 20
11
 11
-20
 21
11
  0
LINE
  8
1
 10
-25.5
 20
14
 11
-22.5
 21
14
  0
LINE
  8
1
 10
-23
 20
12.25
 11
-23
 21
14
  0
POLYLINE
  8
1
 66
1
  0
VERTEX
  8
1
 10
-23
 20
12.25
  0
VERTEX
  8
1
 10
-23
 20
11.75
  0
VERTEX
  8
1
 10
-24.2990381056767
 20
11
  0
VERTEX
  8
1
 10
-23
 20
10.25
  0
VERTEX
  8
1
 10
-23
 20
9.75
  0
SEQEND
  8
1
  0
LINE
  8
1
 10
-23
 20
8
 11
-23
 21
9.75
  0
LINE
  8
1
 10
-25
 20
8
 11
-25
 21
14
  0
POLYLINE
  8
1
 70
1
 66
1
 40
0.5
 41
0.5
  0
VERTEX
  8
1
 10
21.75
 20
-2
 42
1
  0
VERTEX
  8
1
 10
22.25
 20
-2
 42
1
  0
SEQEND
  8
1
  0
POLYLINE
  8
1
 66
1
  0
VERTEX
  8
1
 10
18
 20
1
  0
VERTEX
  8
1
 10
26
 20
1
  0
VERTEX
  8
1
 10
26
 20
-5
  0
VERTEX
  8
1
 10
18
 20
-5
  0
VERTEX
  8
1
 10
18
 20
1
  0
SEQEND
  8
1
  0
POLYLINE
  8
1
 66
1
  0
VERTEX
  8
1
 10
-8
 20
3.6316735228321
  0
VERTEX
  8
1
 10
-13.6568542494924
 20
-2.02518072666027
  0
VERTEX
  8
1
 10
-8
 20
-7.68203497615275
  0
VERTEX
  8
1
 10
-2.3431457505075
 20
-2.02518072666027
  0
VERTEX
  8
1
 10
-8
 20
3.6316735228321
  0
SEQEND
  8
1
  0
POLYLINE
  8
1
 66
1
  0
VERTEX
  8
1
 10
-8
 20
3.6316735228321
  0
VERTEX
  8
1
 10
-13.6568542494924
 20
-2.02518072666027
  0
VERTEX
  8
1
 10
-8
 20
-7.68203497615275
  0
VERTEX
  8
1
 10
-2.3431457505075
 20
-2.02518072666027
  0
VERTEX
  8
1
 10
-8
 20
3.6316735228321
  0
SEQEND
  8
1
  0
POLYLINE
  8
1
 66
1
  0
VERTEX
  8
1
 10
-11.5000206556636
 20
-4.18201432048907
  0
VERTEX
  8
1
 10
-8
 20
-7.68203497615275
  0
VERTEX
  8
1
 10
-4.499978063064
 20
-4.1820130392167
  0
VERTEX
  8
1
 10
-4.499978063064
 20
-4.18203497615262
  0
VERTEX
  8
1
 10
-11.4999936699303
 20
-4.18203497615262
  0
SEQEND
  8
1
  0
LINE
  8
1
 10
-9.37868989820656
 20
-4.18202473438642
 11
-8
 21
-5.56071463259299
  0
LINE
  8
1
 10
-8
 20
-5.56071463259299
 11
-6.62135162219
 21
-4.182066254783
  0
LINE
  8
1
 10
-4.49997806306406
 20
-4.18203497615263
 11
-11.4999936699303
 21
-4.18203497615263
  0
LINE
  8
1
  6
DASHED
 10
-7.99998586649716
 20
-4.18203497615263
 11
-7.99998586649716
 21
3.63167352283209
  0
LINE
  8
1
 10
-0.442597882642289
 20
5.27036371433004
 11
8.44287357865983
 21
7.72971259368521
  0
INSERT
  8
1
  2
LCA1
 10
8.44287357865983
 20
7.72971259368521
 50
15.4711922908485
  0
POLYLINE
  8
1
 66
1
  0
VERTEX
  8
1
 10
4.00011108809962
 20
4.0000231433541
  0
VERTEX
  8
1
 10
6.00011108809963
 20
4.4166898100208
  0
VERTEX
  8
1
 10
2.00011108809962
 20
5.2500231433541
  0
VERTEX
  8
1
 10
6.00011108809963
 20
6.08335647668745
  0
VERTEX
  8
1
 10
2.00011108809962
 20
6.9166898100208
  0
VERTEX
  8
1
 10
6.00011108809963
 20
7.7500231433541
  0
VERTEX
  8
1
 10
2.00011108809962
 20
8.5833564766874
  0
VERTEX
  8
1
 10
4.00011108809962
 20
9.0000231433541
  0
SEQEND
  8
1
  0
POLYLINE
  8
1
 66
1
  0
VERTEX
  8
1
 10
2
 20
3
  0
VERTEX
  8
1
 10
0
 20
2
  0
VERTEX
  8
1
 10
2
 20
1
  0
SEQEND
  8
1
  0
POLYLINE
  8
1
  6
DOT
 66
1
  0
VERTEX
  8
1
 10
4
 20
-4
  0
VERTEX
  8
1
 10
4
 20
-8
  0
VERTEX
  8
1
 10
12
 20
-8
  0
VERTEX
  8
1
 10
12
 20
-4
  0
VERTEX
  8
1
 10
10
 20
-2
  0
SEQEND
  8
1
  0
POLYLINE
  8
1
 66
1
  0
VERTEX
  8
1
 10
2
 20
-4
  0
VERTEX
  8
1
 10
10
 20
-4
  0
VERTEX
  8
1
 10
10
 20
4
  0
VERTEX
  8
1
 10
2
 20
4
  0
VERTEX
  8
1
 10
2
 20
-4
  0
SEQEND
  8
1
  0
LINE
  8
1
 10
10
 20
-2
 11
2
 21
-2
  0
INSERT
  8
1
  2
LCA1
 10
2
 20
-2
 50
-180
  0
INSERT
  8
1
  2
LCA1R
 10
10
 20
-2
 50
-180
  0
CIRCLE
  8
CONNECTIONS
 10
34
 20
-2
 40
0
  0
CIRCLE
  8
CONNECTIONS
 10
-34
 20
-2
 40
0
  0
CIRCLE
  8
CONNECTIONS
 10
-34
 20
-6
 40
0
  0
CIRCLE
  8
CONNECTIONS
 10
22
 20
-20
 40
0
  0
CIRCLE
  8
CONNECTIONS
 10
22
 20
20
 40
0
  0
ENDBLK
  8
0
  0
ENDSEC
  0
SECTION
  2
ENTITIES
  0
INSERT
  8
1
  2
B6115_00991777
 10
34
 20
22
  0
ENDSEC
  0
EOF
