  0
SECTION
  2
HEADER
  9
$LIMMIN
 10
0
 20
0
  9
$LIMMAX
 10
52.5
 20
74.25
  9
$EXTMIN
 10
0
 20
60
  9
$EXTMAX
 10
0
 20
34
  0
ENDSEC
  0
SECTION
  2
TABLES
  0
TABLE
  2
LTYPE
 70
9
  0
LTYPE
  2
CONTINUOUS
 70
64
  3
Solid line
 72
65
 73
0
 40
0
  0
LTYPE
  2
DASHED
 70
64
  3
__ __ __ __ __ __ __ __ __
 72
65
 73
2
 40
0.75
 49
0.5
 49
-0.25
  0
LTYPE
  2
DOT
 70
64
  3
...........................
 72
65
 73
2
 40
0.25
 49
0
 49
-0.25
  0
LTYPE
  2
DASHDOT
 70
64
  3
__ . __ . __ . __ . __ . __ . 
 72
65
 73
4
 40
1
 49
0.5
 49
-0.25
 49
0
 49
-0.25
  0
ENDTAB
  0
TABLE
  2
LAYER
 70
10
  0
LAYER
  2
1
 70
0
 62
7
  6
CONTINUOUS
  0
LAYER
  2
CONNECTIONS
 70
0
 62
-7
  6
CONTINUOUS
  0
ENDTAB
  0
ENDSEC
  0
SECTION
  2
BLOCKS
  0
BLOCK
  8
0
  2
TRICON
 70
0
 10
0
 20
0
  0
POLYLINE
  8
1
 70
1
 66
1
 40
0.5
 41
0.5
  0
VERTEX
  8
1
 10
-0.25
 20
0
 42
1
  0
VERTEX
  8
1
 10
0.25
 20
0
 42
1
  0
SEQEND
  8
1
  0
ENDBLK
  8
0
  0
BLOCK
  8
0
  2
TRICONSMALL
 70
0
 10
0
 20
0
  0
POLYLINE
  8
1
 70
1
 66
1
 40
0.25
 41
0.25
  0
VERTEX
  8
1
 10
-0.125
 20
0
 42
1
  0
VERTEX
  8
1
 10
0.125
 20
0
 42
1
  0
SEQEND
  8
1
  0
ENDBLK
  8
0
  0
BLOCK
  8
0
  2
TRICONCIRCLE
 70
0
 10
0
 20
0
  0
CIRCLE
  8
1
 10
0
 20
0
 40
0.5
  0
ENDBLK
  8
0
  0
BLOCK
  8
0
  2
LCBP0
 70
0
 10
0
 20
0
  0
LINE
  8
1
 10
0
 20
-0.46875
 11
0
 21
0.46875
  0
ENDBLK
  8
0
  0
BLOCK
  8
0
  2
LCBP1
 70
0
 10
0
 20
0
  0
LINE
  8
1
 10
0
 20
-0.625
 11
0
 21
0.625
  0
ENDBLK
  8
0
  0
BLOCK
  8
0
  2
LCBP2
 70
0
 10
0
 20
0
  0
LINE
  8
1
 10
0
 20
-0.9375
 11
0
 21
0.9375
  0
ENDBLK
  8
0
  0
BLOCK
  8
0
  2
LCA1
 70
0
 10
0
 20
0
  0
SOLID
  8
1
 62
7 
 10
0
 20
0
 11
-1.4
 21
-0.275
 12
-1.4
 22
0.275
 13
-1.4
 23
0.275
  0
ENDBLK
  8
0
  0
BLOCK
  8
0
  2
LCA2
 70
0
 10
0
 20
0
  0
SOLID
  8
1
 62
7 
 10
0
 20
0
 11
-1.65
 21
-0.525
 12
-1.65
 22
0.525
 13
-1.65
 23
0.525
  0
ENDBLK
  8
0
  0
BLOCK
  8
0
  2
LCA3
 70
0
 10
0
 20
0
  0
SOLID
  8
1
 62
7 
 10
0
 20
0
 11
-2.15
 21
-1.15
 12
-2.15
 22
1.15
 13
-2.15
 23
1.15
  0
ENDBLK
  8
0
  0
BLOCK
  8
0
  2
LCA1R
 70
0
 10
0
 20
0
  0
SOLID
  8
1
 62
7 
 10
0
 20
0
 11
1.4
 21
-0.275
 12
1.4
 22
0.275
 13
1.4
 23
0.275
  0
ENDBLK
  8
0
  0
BLOCK
  8
0
  2
LCA2R
 70
0
 10
0
 20
0
  0
SOLID
  8
1
 62
7 
 10
0
 20
0
 11
1.65
 21
-0.525
 12
1.65
 22
0.525
 13
1.65
 23
0.525
  0
ENDBLK
  8
0
  0
BLOCK
  8
0
  2
LCA3R
 70
0
 10
0
 20
0
  0
SOLID
  8
1
 62
7 
 10
0
 20
0
 11
2.15
 21
-1.15
 12
2.15
 22
1.15
 13
2.15
 23
1.15
  0
ENDBLK
  8
0
  0
BLOCK
  8
0
  2
B6052_00991775
 70
0
 10
0
 20
0
  0
POLYLINE
  8
1
  6
DASHDOT
 66
1
  0
VERTEX
  8
1
 10
-26
 20
17
  0
VERTEX
  8
1
 10
26
 20
17
  0
VERTEX
  8
1
 10
26
 20
-13
  0
VERTEX
  8
1
 10
-26
 20
-13
  0
VERTEX
  8
1
 10
-26
 20
17
  0
SEQEND
  8
1
  0
LINE
  8
1
 10
26
 20
3
 11
30
 21
3
  0
LINE
  8
1
 10
-16
 20
-13
 11
-16
 21
-17
  0
LINE
  8
1
 10
-30
 20
3
 11
-26
 21
3
  0
TEXT
  8
1
 40
2.475
 41
0.75
  1
2
  7
STANDARD
 73
2
 10
27.1584699453552
 20
6.01639344262298
 11
27.1584699453552
 21
6.01639344262298
  0
TEXT
  8
1
 40
2.475
 41
0.75
  1
1
  7
STANDARD
 72
2
 10
-26.4655974188913
 20
4.88445042088071
 11
-26.4655974188913
 21
4.88445042088071
  0
LINE
  8
1
 10
21.6632440258504
 20
3
 11
26
 21
3
  0
POLYLINE
  8
1
 66
1
  0
VERTEX
  8
1
 10
-8
 20
3
  0
VERTEX
  8
1
 10
-8
 20
-7
  0
VERTEX
  8
1
 10
-6
 20
-7
  0
SEQEND
  8
1
  0
LINE
  8
1
 10
-16
 20
-2.64912280701756
 11
-16
 21
-13
  0
LINE
  8
1
 10
-26
 20
3
 11
-21.6485902072146
 21
3
  0
LINE
  8
1
 10
2
 20
3
 11
10.3495355268655
 21
3
  0
LINE
  8
1
 10
-10.3431457505076
 20
3
 11
-6
 21
3
  0
POLYLINE
  8
1
 70
1
 66
1
 40
0.5
 41
0.5
  0
VERTEX
  8
1
 10
-8.25
 20
3
 42
1
  0
VERTEX
  8
1
 10
-7.75
 20
3
 42
1
  0
SEQEND
  8
1
  0
POLYLINE
  8
1
 70
1
 66
1
 40
0.5
 41
0.5
  0
VERTEX
  8
1
 10
5.75
 20
3
 42
1
  0
VERTEX
  8
1
 10
6.25
 20
3
 42
1
  0
SEQEND
  8
1
  0
POLYLINE
  8
1
 66
1
  0
VERTEX
  8
1
 10
4
 20
-7
  0
VERTEX
  8
1
 10
6
 20
-7
  0
VERTEX
  8
1
 10
6
 20
3
  0
SEQEND
  8
1
  0
LINE
  8
1
 10
16.0063897763578
 20
5.35995740149095
 11
16.0063897763578
 21
8.67366590047569
  0
POLYLINE
  8
1
 66
1
  0
VERTEX
  8
1
 10
16.0063897763578
 20
8.67366590047567
  0
VERTEX
  8
1
 10
10.3495355268655
 20
3.0168116509833
  0
VERTEX
  8
1
 10
16.0063897763578
 20
-2.64004259850908
  0
VERTEX
  8
1
 10
21.6632440258503
 20
3.0168116509833
  0
VERTEX
  8
1
 10
16.0063897763578
 20
8.67366590047567
  0
SEQEND
  8
1
  0
POLYLINE
  8
1
 66
1
  0
VERTEX
  8
1
 10
-16
 20
8.66458569196718
  0
VERTEX
  8
1
 10
-21.6568542494924
 20
3.0077314424748
  0
VERTEX
  8
1
 10
-16
 20
-2.64912280701758
  0
VERTEX
  8
1
 10
-10.3431457505076
 20
3.0077314424748
  0
VERTEX
  8
1
 10
-16
 20
8.66458569196718
  0
SEQEND
  8
1
  0
LINE
  8
1
  6
DASHED
 10
-15.9999858664972
 20
-0.649122807017553
 11
-15.9999858664972
 21
8.66458569196717
  0
LINE
  8
1
 10
-17.9999728732639
 20
-0.649122807017553
 11
-13.9999877408019
 21
-0.649122807017553
  0
POLYLINE
  8
1
 66
1
  0
VERTEX
  8
1
 10
-17.9999728732639
 20
-0.649149933753677
  0
VERTEX
  8
1
 10
-16
 20
-2.64912280701758
  0
VERTEX
  8
1
 10
-13.9999877408019
 20
-0.649110547819497
  0
SEQEND
  8
1
  0
LINE
  8
1
 10
0
 20
-7
 11
4
 21
-7
  0
LINE
  8
1
 10
-6
 20
-7
 11
-2.47599625766112
 21
-7
  0
CIRCLE
  8
1
 10
-1.5
 20
-7
 40
1
  0
POLYLINE
  8
1
 66
1
  0
VERTEX
  8
1
 10
-2
 20
-9
  0
VERTEX
  8
1
 10
0
 20
-7
  0
VERTEX
  8
1
 10
-2
 20
-5
  0
SEQEND
  8
1
  0
LINE
  8
1
 10
-8.44259788264229
 20
10.27036371433
 11
0.442873578659832
 21
12.7297125936852
  0
INSERT
  8
1
  2
LCA1
 10
0.442873578659832
 20
12.7297125936852
 50
15.4711922908485
  0
POLYLINE
  8
1
 66
1
  0
VERTEX
  8
1
 10
-3.99988891190038
 20
9.0000231433541
  0
VERTEX
  8
1
 10
-1.99988891190037
 20
9.4166898100208
  0
VERTEX
  8
1
 10
-5.99988891190038
 20
10.2500231433541
  0
VERTEX
  8
1
 10
-1.99988891190037
 20
11.0833564766874
  0
VERTEX
  8
1
 10
-5.99988891190038
 20
11.9166898100208
  0
VERTEX
  8
1
 10
-1.99988891190037
 20
12.7500231433541
  0
VERTEX
  8
1
 10
-5.99988891190038
 20
13.5833564766874
  0
VERTEX
  8
1
 10
-3.99988891190038
 20
14.0000231433541
  0
SEQEND
  8
1
  0
POLYLINE
  8
1
 66
1
  0
VERTEX
  8
1
 10
-6
 20
8
  0
VERTEX
  8
1
 10
-8
 20
7
  0
VERTEX
  8
1
 10
-6
 20
6
  0
SEQEND
  8
1
  0
POLYLINE
  8
1
  6
DOT
 66
1
  0
VERTEX
  8
1
 10
-4
 20
1
  0
VERTEX
  8
1
 10
-4
 20
-3
  0
VERTEX
  8
1
 10
4
 20
-3
  0
VERTEX
  8
1
 10
4
 20
1
  0
VERTEX
  8
1
 10
2
 20
3
  0
SEQEND
  8
1
  0
POLYLINE
  8
1
 66
1
  0
VERTEX
  8
1
 10
-6
 20
1
  0
VERTEX
  8
1
 10
2
 20
1
  0
VERTEX
  8
1
 10
2
 20
9
  0
VERTEX
  8
1
 10
-6
 20
9
  0
VERTEX
  8
1
 10
-6
 20
1
  0
SEQEND
  8
1
  0
LINE
  8
1
 10
2
 20
3
 11
-6
 21
3
  0
INSERT
  8
1
  2
LCA1
 10
-6
 20
3
 50
-180
  0
INSERT
  8
1
  2
LCA1R
 10
2
 20
3
 50
-180
  0
CIRCLE
  8
CONNECTIONS
 10
30
 20
3
 40
0
  0
CIRCLE
  8
CONNECTIONS
 10
-30
 20
3
 40
0
  0
ENDBLK
  8
0
  0
ENDSEC
  0
SECTION
  2
ENTITIES
  0
INSERT
  8
1
  2
B6052_00991775
 10
30
 20
17
  0
ENDSEC
  0
EOF
