  0
SECTION
  2
HEADER
  9
$LIMMIN
 10
0
 20
0
  9
$LIMMAX
 10
52.5
 20
74.25
  9
$EXTMIN
 10
0
 20
58
  9
$EXTMAX
 10
0
 20
44
  0
ENDSEC
  0
SECTION
  2
TABLES
  0
TABLE
  2
LTYPE
 70
9
  0
LTYPE
  2
CONTINUOUS
 70
64
  3
Solid line
 72
65
 73
0
 40
0
  0
LTYPE
  2
DASHED
 70
64
  3
__ __ __ __ __ __ __ __ __
 72
65
 73
2
 40
0.75
 49
0.5
 49
-0.25
  0
LTYPE
  2
DOT
 70
64
  3
...........................
 72
65
 73
2
 40
0.25
 49
0
 49
-0.25
  0
LTYPE
  2
DASHDOT
 70
64
  3
__ . __ . __ . __ . __ . __ . 
 72
65
 73
4
 40
1
 49
0.5
 49
-0.25
 49
0
 49
-0.25
  0
ENDTAB
  0
TABLE
  2
LAYER
 70
10
  0
LAYER
  2
1
 70
0
 62
7
  6
CONTINUOUS
  0
LAYER
  2
CONNECTIONS
 70
0
 62
-7
  6
CONTINUOUS
  0
ENDTAB
  0
ENDSEC
  0
SECTION
  2
BLOCKS
  0
BLOCK
  8
0
  2
TRICON
 70
0
 10
0
 20
0
  0
POLYLINE
  8
1
 70
1
 66
1
 40
0.5
 41
0.5
  0
VERTEX
  8
1
 10
-0.25
 20
0
 42
1
  0
VERTEX
  8
1
 10
0.25
 20
0
 42
1
  0
SEQEND
  8
1
  0
ENDBLK
  8
0
  0
BLOCK
  8
0
  2
TRICONSMALL
 70
0
 10
0
 20
0
  0
POLYLINE
  8
1
 70
1
 66
1
 40
0.25
 41
0.25
  0
VERTEX
  8
1
 10
-0.125
 20
0
 42
1
  0
VERTEX
  8
1
 10
0.125
 20
0
 42
1
  0
SEQEND
  8
1
  0
ENDBLK
  8
0
  0
BLOCK
  8
0
  2
TRICONCIRCLE
 70
0
 10
0
 20
0
  0
CIRCLE
  8
1
 10
0
 20
0
 40
0.5
  0
ENDBLK
  8
0
  0
BLOCK
  8
0
  2
LCBP0
 70
0
 10
0
 20
0
  0
LINE
  8
1
 10
0
 20
-0.46875
 11
0
 21
0.46875
  0
ENDBLK
  8
0
  0
BLOCK
  8
0
  2
LCBP1
 70
0
 10
0
 20
0
  0
LINE
  8
1
 10
0
 20
-0.625
 11
0
 21
0.625
  0
ENDBLK
  8
0
  0
BLOCK
  8
0
  2
LCBP2
 70
0
 10
0
 20
0
  0
LINE
  8
1
 10
0
 20
-0.9375
 11
0
 21
0.9375
  0
ENDBLK
  8
0
  0
BLOCK
  8
0
  2
LCA1
 70
0
 10
0
 20
0
  0
SOLID
  8
1
 62
7 
 10
0
 20
0
 11
-1.4
 21
-0.275
 12
-1.4
 22
0.275
 13
-1.4
 23
0.275
  0
ENDBLK
  8
0
  0
BLOCK
  8
0
  2
LCA2
 70
0
 10
0
 20
0
  0
SOLID
  8
1
 62
7 
 10
0
 20
0
 11
-1.65
 21
-0.525
 12
-1.65
 22
0.525
 13
-1.65
 23
0.525
  0
ENDBLK
  8
0
  0
BLOCK
  8
0
  2
LCA3
 70
0
 10
0
 20
0
  0
SOLID
  8
1
 62
7 
 10
0
 20
0
 11
-2.15
 21
-1.15
 12
-2.15
 22
1.15
 13
-2.15
 23
1.15
  0
ENDBLK
  8
0
  0
BLOCK
  8
0
  2
LCA1R
 70
0
 10
0
 20
0
  0
SOLID
  8
1
 62
7 
 10
0
 20
0
 11
1.4
 21
-0.275
 12
1.4
 22
0.275
 13
1.4
 23
0.275
  0
ENDBLK
  8
0
  0
BLOCK
  8
0
  2
LCA2R
 70
0
 10
0
 20
0
  0
SOLID
  8
1
 62
7 
 10
0
 20
0
 11
1.65
 21
-0.525
 12
1.65
 22
0.525
 13
1.65
 23
0.525
  0
ENDBLK
  8
0
  0
BLOCK
  8
0
  2
LCA3R
 70
0
 10
0
 20
0
  0
SOLID
  8
1
 62
7 
 10
0
 20
0
 11
2.15
 21
-1.15
 12
2.15
 22
1.15
 13
2.15
 23
1.15
  0
ENDBLK
  8
0
  0
BLOCK
  8
0
  2
B5972_00991772
 70
0
 10
0
 20
0
  0
POLYLINE
  8
1
  6
DASHDOT
 66
1
  0
VERTEX
  8
1
 10
-25
 20
22
  0
VERTEX
  8
1
 10
25
 20
22
  0
VERTEX
  8
1
 10
25
 20
-18
  0
VERTEX
  8
1
 10
-25
 20
-18
  0
VERTEX
  8
1
 10
-25
 20
22
  0
SEQEND
  8
1
  0
LINE
  8
1
 10
15
 20
-18
 11
15
 21
-20
  0
LINE
  8
1
 10
25
 20
-2
 11
29
 21
-2
  0
TEXT
  8
1
 40
2.475
 41
0.75
  1
2
  7
STANDARD
 73
2
 10
26.1584699453552
 20
1.01639344262298
 11
26.1584699453552
 21
1.01639344262298
  0
LINE
  8
1
 10
-15
 20
-18
 11
-15
 21
-22
  0
LINE
  8
1
 10
-29
 20
-2
 11
-25
 21
-2
  0
TEXT
  8
1
 40
2.475
 41
0.75
  1
1
  7
STANDARD
 72
2
 10
-25.4655974188913
 20
-0.11554957911929
 11
-25.4655974188913
 21
-0.11554957911929
  0
LINE
  8
1
 10
15
 20
8
 11
15
 21
-18
  0
LINE
  8
1
 10
3
 20
-2
 11
25
 21
-2
  0
POLYLINE
  8
1
 66
1
  0
VERTEX
  8
1
 10
-7
 20
-2
  0
VERTEX
  8
1
 10
-7
 20
-12
  0
VERTEX
  8
1
 10
-5
 20
-12
  0
SEQEND
  8
1
  0
LINE
  8
1
 10
-15
 20
-7.66702252124246
 11
-15
 21
-18
  0
LINE
  8
1
 10
-25
 20
-2
 11
-20.6272645574986
 21
-2
  0
LINE
  8
1
 10
-9.3135560585138
 20
-2
 11
-5
 21
-2
  0
POLYLINE
  8
1
 70
1
 66
1
 40
0.5
 41
0.5
  0
VERTEX
  8
1
 10
-7.25
 20
-2
 42
1
  0
VERTEX
  8
1
 10
-6.75
 20
-2
 42
1
  0
SEQEND
  8
1
  0
POLYLINE
  8
1
 70
1
 66
1
 40
0.5
 41
0.5
  0
VERTEX
  8
1
 10
6.75
 20
-2
 42
1
  0
VERTEX
  8
1
 10
7.25
 20
-2
 42
1
  0
SEQEND
  8
1
  0
POLYLINE
  8
1
 66
1
  0
VERTEX
  8
1
 10
5
 20
-12
  0
VERTEX
  8
1
 10
7
 20
-12
  0
VERTEX
  8
1
 10
7
 20
-2
  0
SEQEND
  8
1
  0
LINE
  8
1
 10
7
 20
4
 11
7
 21
-2
  0
LINE
  8
1
 10
15
 20
-20
 11
15
 21
-22
  0
INSERT
  8
1
  2
LCBP1
 10
15
 20
-22
 50
-90
  0
POLYLINE
  8
1
 66
1
  0
VERTEX
  8
1
 10
-14.9704103080062
 20
3.64668597774227
  0
VERTEX
  8
1
 10
-20.6272645574986
 20
-2.0101682717501
  0
VERTEX
  8
1
 10
-14.9704103080062
 20
-7.6670225212425
  0
VERTEX
  8
1
 10
-9.3135560585138
 20
-2.0101682717501
  0
VERTEX
  8
1
 10
-14.9704103080062
 20
3.64668597774227
  0
SEQEND
  8
1
  0
LINE
  8
1
  6
DASHED
 10
-14.9703961745034
 20
-5.66702252124247
 11
-14.9703961745034
 21
3.64668597774225
  0
LINE
  8
1
 10
-16.9703831812701
 20
-5.66702252124247
 11
-12.9703980488082
 21
-5.66702252124247
  0
POLYLINE
  8
1
 66
1
  0
VERTEX
  8
1
 10
-16.9703831812701
 20
-5.6670496479785
  0
VERTEX
  8
1
 10
-14.9704103080062
 20
-7.6670225212425
  0
VERTEX
  8
1
 10
-12.9703980488082
 20
-5.6670102620445
  0
SEQEND
  8
1
  0
LINE
  8
1
 10
8.76776695296636
 20
6.23223304703364
 11
5.23223304703363
 21
9.76776695296637
  0
INSERT
  8
1
  2
LCA1
 10
5.23223304703363
 20
9.76776695296637
 50
135
  0
CIRCLE
  8
1
 10
7
 20
8
 40
4
  0
LINE
  8
1
 10
19.5010515247108
 20
15.5
 11
10.5010515247108
 21
17.5
  0
INSERT
  8
1
  2
LCA1
 10
10.5010515247108
 20
17.5
 50
167.471192290849
  0
POLYLINE
  8
1
 66
1
  0
VERTEX
  8
1
 10
15.0010515247107
 20
19
  0
VERTEX
  8
1
 10
17.0010515247108
 20
18.5833333333333
  0
VERTEX
  8
1
 10
13.0010515247107
 20
17.75
  0
VERTEX
  8
1
 10
17.0010515247108
 20
16.9166666666667
  0
VERTEX
  8
1
 10
13.0010515247107
 20
16.0833333333333
  0
VERTEX
  8
1
 10
17.0010515247108
 20
15.25
  0
VERTEX
  8
1
 10
13.0010515247107
 20
14.4166666666667
  0
VERTEX
  8
1
 10
15.0010515247107
 20
14
  0
SEQEND
  8
1
  0
POLYLINE
  8
1
 66
1
  0
VERTEX
  8
1
 10
15.3010515247107
 20
9.15
  0
VERTEX
  8
1
 10
15.3010515247107
 20
10.15
  0
VERTEX
  8
1
 10
14.3010515247107
 20
12.65
  0
SEQEND
  8
1
  0
LINE
  8
1
 10
15.3010515247108
 20
11.85
 11
15.3010515247108
 21
12.85
  0
POLYLINE
  8
1
 66
1
  0
VERTEX
  8
1
 10
12.0010515247107
 20
8
  0
VERTEX
  8
1
 10
18.0010515247108
 20
8
  0
VERTEX
  8
1
 10
18.0010515247108
 20
14
  0
VERTEX
  8
1
 10
12.0010515247107
 20
14
  0
VERTEX
  8
1
 10
12.0010515247107
 20
8
  0
SEQEND
  8
1
  0
LINE
  8
1
 10
-5
 20
-12
 11
-1.47599625766112
 21
-12
  0
LINE
  8
1
 10
1
 20
-12
 11
5
 21
-12
  0
CIRCLE
  8
1
 10
-0.5
 20
-12
 40
1
  0
POLYLINE
  8
1
 66
1
  0
VERTEX
  8
1
 10
-1
 20
-14
  0
VERTEX
  8
1
 10
1
 20
-12
  0
VERTEX
  8
1
 10
-1
 20
-10
  0
SEQEND
  8
1
  0
POLYLINE
  8
1
 70
1
 66
1
 40
0.5
 41
0.5
  0
VERTEX
  8
1
 10
14.75
 20
-2
 42
1
  0
VERTEX
  8
1
 10
15.25
 20
-2
 42
1
  0
SEQEND
  8
1
  0
POLYLINE
  8
1
 66
1
  0
VERTEX
  8
1
 10
11
 20
1
  0
VERTEX
  8
1
 10
19
 20
1
  0
VERTEX
  8
1
 10
19
 20
-5
  0
VERTEX
  8
1
 10
11
 20
-5
  0
VERTEX
  8
1
 10
11
 20
1
  0
SEQEND
  8
1
  0
LINE
  8
1
 10
-7.44259788264229
 20
5.27036371433004
 11
1.44287357865983
 21
7.72971259368521
  0
INSERT
  8
1
  2
LCA1
 10
1.44287357865983
 20
7.72971259368521
 50
15.4711922908485
  0
POLYLINE
  8
1
 66
1
  0
VERTEX
  8
1
 10
-2.99988891190038
 20
4.0000231433541
  0
VERTEX
  8
1
 10
-0.999888911900374
 20
4.4166898100208
  0
VERTEX
  8
1
 10
-4.99988891190038
 20
5.2500231433541
  0
VERTEX
  8
1
 10
-0.999888911900374
 20
6.08335647668745
  0
VERTEX
  8
1
 10
-4.99988891190038
 20
6.9166898100208
  0
VERTEX
  8
1
 10
-0.999888911900374
 20
7.7500231433541
  0
VERTEX
  8
1
 10
-4.99988891190038
 20
8.5833564766874
  0
VERTEX
  8
1
 10
-2.99988891190038
 20
9.0000231433541
  0
SEQEND
  8
1
  0
POLYLINE
  8
1
 66
1
  0
VERTEX
  8
1
 10
-5
 20
3
  0
VERTEX
  8
1
 10
-7
 20
2
  0
VERTEX
  8
1
 10
-5
 20
1
  0
SEQEND
  8
1
  0
POLYLINE
  8
1
  6
DOT
 66
1
  0
VERTEX
  8
1
 10
-3
 20
-4
  0
VERTEX
  8
1
 10
-3
 20
-8
  0
VERTEX
  8
1
 10
5
 20
-8
  0
VERTEX
  8
1
 10
5
 20
-4
  0
VERTEX
  8
1
 10
3
 20
-2
  0
SEQEND
  8
1
  0
POLYLINE
  8
1
 66
1
  0
VERTEX
  8
1
 10
-5
 20
-4
  0
VERTEX
  8
1
 10
3
 20
-4
  0
VERTEX
  8
1
 10
3
 20
4
  0
VERTEX
  8
1
 10
-5
 20
4
  0
VERTEX
  8
1
 10
-5
 20
-4
  0
SEQEND
  8
1
  0
LINE
  8
1
 10
3
 20
-2
 11
-5
 21
-2
  0
INSERT
  8
1
  2
LCA1
 10
-5
 20
-2
 50
-180
  0
INSERT
  8
1
  2
LCA1R
 10
3
 20
-2
 50
-180
  0
CIRCLE
  8
CONNECTIONS
 10
29
 20
-2
 40
0
  0
CIRCLE
  8
CONNECTIONS
 10
-29
 20
-2
 40
0
  0
CIRCLE
  8
CONNECTIONS
 10
15
 20
-20
 40
0
  0
CIRCLE
  8
CONNECTIONS
 10
15.0009551383161
 20
14
 40
0
  0
ENDBLK
  8
0
  0
ENDSEC
  0
SECTION
  2
ENTITIES
  0
INSERT
  8
1
  2
B5972_00991772
 10
29
 20
22
  0
ENDSEC
  0
EOF
